Oops, an error
Loading. Please wait.

Compel To Copulate Tab

2,220 views 1 this week
3 commentsread comments
1 2 3 4 5
please rate
add to favorites
launch autoscroll
font size
0
reset
how to read this tab
guitar tuner
Autoscroll
slow
fast
+/-
esc
set tempo
stop
Help us to improve Ultimate-Guitar.com Take our survey!
×
Author
Difficulty
advanced
Despised Icon
Album: Consumed By Your Poison
Song: Compel To Copulate

By Bryan

Code:
Suffixes for bend:
fb - full bend       hb - half bend
qb - quarter bend    t - tap bend
r - release bend

Suffixes for harmonic:
^ - pinched harmonic      n – natural harmonic

Suffixes for mute:
. – palm mute            x – staccato mute
, - light palm mute      ; - heavy palm mute

Other:
/ - slide up to            \ - slide down to       
h - hammer on              p - pull off
" - tremolo note           <> - Trill
* - see comment

Tuning B E A D F# B

Intro (0:01)
|---------------------------------------------------------------|
|---------------------------------------------------------------|
|---------------------------------------------------------------| gtr
|----------6^----------------------6^-6p4p3-4h6h9--6p4p3-4h6h9--|  1
|-6--4--6-----6--4--3--4--6--9--6-------------------------------|
|-4--2--4-----4--2--1--2--4--7--4-------------------------------|
  .  .  .     .  .  .  .  .  .  .

|---------------------------------------------------------------|
|---------------------------------------------------------------|
|---------------------------------------------------------------| gtr
|----------------------------------6^-9p7p6-7h9h12-9p7p6-7h9h12-|  2
|-6-----------6--4--------6--9--6-------------------------------|
|-4-----------4--2--------4--7--4-------------------------------|
  .           .  .        .  .  .


Riff 1 (0:05) play 3 times
|---------------------------------------------------------------|
|---------------------------------------------------------------|
|---------------------------------------------------------------| gtr
|----------6^----------------------6^-6p4p3-4h6h9--6p4p3-4h6h9--|  1
|-6--4--6-----6--4--3--4--6--9--6-------------------------------|
|-4--2--4-----4--2--1--2--4--7--4-------------------------------|
  .  .  .     .  .  .  .  .  .  .
|---------------------------------------------------------------|
|---------------------------------------------------------------|
|---------------------------------------------------------------| gtr
|----------6^----------------------6^-9p7p6-7h9h12-9p7p6-7h9h12-|  1
|-6--4--6-----6--4--3--4--6--9--6-------------------------------|
|-4--2--4-----4--2--1--2--4--7--4-------------------------------|
  .  .  .     .  .  .  .  .  .  .

Riff 2a (0:17) play twice
|----------------------------------------------------|
|----------------------------------------------------|
|----------------------------------------------------|
|---------------7"-4"-7"-4"-7"-8"------7-6-----6p4p3-| gtr 1
|-2--2-2-2-2-2---------------------5-8-----3-2-------|
|-0--0-0-0-0-0---------------------------------------|
  .  . . . . .                     . . . . . .
|----------------------------------------------------|
|----------------------------------------------------|
|--------------------------------------5-4-----------|
|----------------------------------3-6---------9p8p6-| gtr 2
|-2--2-2-2-2-2--8"-5"-8"-5"-8"-9"----------6-5-------|
|-0--0-0-0-0-0---------------------------------------|
  .  . . . . .                     . . . . . .


Riff 2b (0:25) play twice
|----------------------------------------------|
|----------------------------------------------|
|----------------------------------------------|
|--------------------------------6"--------7"--| gtr 1
|-8------8------4-3--2--3-2--4"-----4"-5"------|
|-6--0-0-6--0-0-2-1--2--3-2--------------------|
     . .    . . . .  .  . .
|----------------------------------------------|
|----------------------------------------------|
|----------------------------------------------|
|----------------------------------------------| gtr 2
|-8------8------4-3--2--3-2------8"--------8"--|
|-6--0-0-6--0-0-2-1--2--3-2--6"-----6"-7"------|
     . .    . . . .  .  . .

Riff 2a x 1 (0:33)
Riff 2b x 1 (0:41)
Guitar stops (0:49)

Riff 3 (0:51) play 4 times  [*] = don’t play this section on 4th time
                                                    [*]
|----------------------------------------------|----------|
|----------------------------------------------|----------|
|----------------------------------------------|----------|
|-----6-5-----10"---------9"-8"---------10"-9"-|-----14\--| both gtrs
|-8-6-4-3---------10"-11"-------9"-10"---------|-----12\--|
|-6-4-----0"-----------------------------------|-11"------|
  . . . .

Riff 4a (1:06) play twice
                                     [1]      [2]
|-------------------------------|-------|-------|
|-------------------------------|-------|-------|
|-------------------------------|-------|-------|
|-------------------------------|-------|-7^~~--| gtr 1
|-2-2---2-4---2-6---2-5---5--6--|-3--4--|-------|
|-0-0---0-2---0-4---0-3---3--4--|-1--2--|-------|
  .     .     .     .     .  .    .  .
|-----------------------------------------------|
|-----------------------------------------------|
|-----------------------------------------------|
|-----------------------------------------------| gtr 2
|-2---------------------------------------------|
|-0---------------------------------------------|
  .x

Riff 4b (1:13) play 4 times
                                  [1, 3]   [2, 4]
|-------------------------------|-------|-------|
|-------------------------------|-------|-------|
|-------------------------------|-------|-------|
|-------------------------------|-------|-7^~~--| both gtrs
|-2-2---2-4---2-6---2-5---5--6--|-3--4--|-------|
|-0-0---0-2---0-4---0-3---3--4--|-1--2--|-------|
  .     .     .     .     .  .    .  .

Riff 4c (1:26)
                                     [1]      [2]
|-------------------------------|-------|-------|
|-------------------------------|-------|-------|
|-------------------------------|-------|-------|
|-------------------------------|-------|-7^~~--| both gtrs
|-2-2---2-4---2-6---2-5---5--6--|-3--4--|-------|
|-0-0---0-2---0-4---0-3---3--4--|-1--2--|-------|
  . .   . .   . .   . .   .  .    .  .

Riff 5 (1:33) play twice
|-4<7>--5<8>--6<9>--7<10>--8<11>--9<12>--10<13>--11<14>--|
|--------------------------------------------------------|
|--------------------------------------------------------|
|--------------------------------------------------------| both gtrs
|--------------------------------------------------------|
|--------------------------------------------------------|

Riff 6 (1:41) play 4 times
|-------------------------------------------------------|
|-------------------------------------------------------|
|-------------------------------------------------------|
|------10"-9"-----14\------6-5-----10"---------7"-6"----| both gtrs
|-10"-------------12\--8-6-4-3---------10"-11"-------7"-|
|-------------11"------6-4-----0"-----------------------|
                     . . . .

Fill 1 (1:58)
|---------------------------------------------------------------|
|---------------------------------------------------------------|
|---------------------------------------------------------------| gtr
|----------------------------------6^-6p4p3-4h6h9--6p4p3-4h6h9--|  1
|-6-----------6--4--------6--9--6-------------------------------|
|-4-----------4--2--------4--7--4-------------------------------|
  .           .  .        .  .  .

|---------------------------------------------------------------|
|---------------------------------------------------------------|
|---------------------------------------------------------------| gtr
|----------------------------------6^-9p7p6-7h9h12-9p7p6-7h9h12-|  2
|-6-----------6--4--------6--9--6-------------------------------|
|-4-----------4--2--------4--7--4-------------------------------|
  .           .  .        .  .  .

Riff 1 x 1 (2:01)

Riff 7 (2:18) play twice
|----------------------------------------------------------------|
|----------------------------------------------------------------|
|----------------------------------------------------------------|gtr
|----------------------------------------------------------------|1+2
|-6---5-5-5-5---4---3---2---3---2---5---6---5-5-5-5---4---3---1--|
|-4---3-3-3-3---2---1---2---3---2---5---4---3-3-3-3---2---1---1--|
  .   . . . .   .   .   .   .   .   .   .   . . . .   .   .   .

Riff 8 (2:30)
|----------------------------------------------------------------
|----------------------------------------------------------------
|----------------------------------------------------------------
|----------------------------------------------------------------
|-2---1---2---1--0--1--0--1---2---1---4---3---4---3--2--3--2--1--
|-4---3---4---3--2--3--2--1---2---1---4---3---4---3--2--3--2--1--
  ;   ;   ;   ;  ;  ;  ;  ;   ;   ;   ;   ;   ;   ;  ;  ;  ;  ;

---------------------------------------|
---------------------------------------|
------4^-------------------------------|
-4^------------------------------------|
-----------6-----2----4---2---4---5----|
-----------4-----2----4---2---4---5----|
           ;x    ;    ;   ;   ;   ;x

Suggest correction
Give kudos to tab author, rate the tab!
1 2 3 4 5
comments
print report bad tab
3 comments total.
+1 reply
doulittle 404 wrote on June 28 2008, 11:55 pm

thank you so much! Accurate and really helpful..!

-2 reply
bloodzone 10 wrote on July 10 2008, 01:31 pm

Dude look sooooooo many people are making this mistake its not even funny but the correct tunning is B,E,A,D,(G),B there is no f# any ware in that tunning i can assure its just 7 string tunning applied to a six string.

0 reply
I<3Hobos 351 wrote on March 29 2009, 08:01 pm

bloodzone, you're totally wrong, DI play on 6 strings with a F# instead of a G, look at the song Furtive Monologue, in the first riff they play this chord that can only be achieved if the open F# is played with the other notes.

guest
You may want to rate the tab now too:
select rating
Please do not post tabs as comments. Select "correction" instead!