Oops, an error
Loading. Please wait.

Dead King Tab

553 views 1 this week
no commentswrite comment
1 2 3 4 5
please rate
add to favorites
launch autoscroll
font size
0
reset
how to read this tab
guitar tuner
Autoscroll
slow
fast
+/-
esc
set tempo
stop
Help us to improve Ultimate-Guitar.com Take our survey!
×
Author
Despised Icon
Consumed By Your Poison
Dead King

Copyright (c)  Galy Records 2002
Version 1.0 - 25.8.2009

Transcribed By: Yaniv Dekel
Email:          lickywebster@yahoo.com


.  - palm mute           /  - slide up to
\  - slide down to       ~  - vibrato
h  - hammer on           b  - Bend
p  - pull off            Suffixes for bend
t  - tap                 f  - full bend    h - half bend
ph - pinched harmonic    q  - quarter bend t - tap bend
*  - see comment         ^  - Hold bend    r release bend
x  - Stuccatto           ~  - vibrato bend
,  - slight palm mute    () - ghost note, sustained note
"  - tremolo note        <> - Trill

Tuning is B standard (B-E-A-D-F#-B)



Intro x3
|L (clean)
|-------------------------------------------------------------------|
|-0-----------------------------------------------------------------|
|-----0-------0-----------------------------------------------------|
|---------4---------------------------------------------------------|
|-------------------------------------------------------------------|
|-------------------------------------------------------------------|
|
|R
|-17fb------0-0---x-x-x-x-------------------------------------------|
|-----------4-4/----------------------------------------------------|
|-------------------------------------------------------------------|
|--(Note: for the high pitched dead notes, block the strings with---|
|---your left hand and tap the high B string with the pick 4 times--|
|---getting closer to the bridge with each tap)---------------------|

Riff A x2
|--------------------------------|
|--------------------------------|
|--------------------------------|
|---/8----/9----/10---/11--------|
|---/8--0-/9--0-/10-0-/11-0------|
|--------------------------------|


Riff B x1
|L
|--------------------------------------------|
|--------------------------------------------|
|-----------6<7>-8<9>-----------7<8>-9<10>---|
|------8<9>----------------8<9>--------------|
|-6<7>----------------6<7>-------------------|
|--------------------------------------------|
|
|R
|--------------------------------------------|
|--------------------------------------------|
|--------------------------------------------|
|-----------4<5>-6<7>-----------5<6>-7<8>----|
|------6<7>----------------6<7>--------------|
|-4<5>----------------4<5>-------------------|

Riff A x2
Riff B x1

Passage x2
*dont play 2nd time
|L
|---------------------------------|
|---------------------------------|
|---------------------------------|
|---------------------------------|
|-7-6-5-6-5-4-7-6-5-6-5-4-3-2-3-2-|
|-5-4-3-4-5-4-5-4-3-4-3-2-3-2-3-2-|
|         . .             . . . .
|R
|---------------------------------|
|---------------------------------|
|---------------------------------|
|-*-------------------------------|
|-7-------5-4-------------3-2-3-2-|
|-5-------5-4-------------3-2-3-2-|
          . .             . . . .


Riff C x2
|---------------------------------|
|---------------------------------|
|---------------------------------|
|---------------------------------|
|-7-6-5-6-5-4-7-6-5-6-5-4-3-2-3-2-|
|-5-4-3-4-5-4-5-4-3-4-3-2-3-2-3-2-|
          . .             . . . .


Break
Riff C x2 (PM all notes)
Riff C x1 (As written above)

End x1
|L
|------------------------------|
|------------------------------|
|------------------------------|
|------------------------------|
|-7-6-5-6-5-4-7-6-5-6-5-4-3-2--|
|-5-4-3-4-5-4-5-4-3-4-3-2-3-2--|
  . . . . . . . . . . . . . .



END
Suggest correction new What's this?
You can suggest a correction to this tab. Community and Mods will review your correction and vote to approve or reject it.
comments
We did not receive enough feedback on this tab! Please rate:
print report bad tab
1 2 3 4 5
guest
You may want to rate the tab now too:
select rating
Please do not post tabs as comments. Select "correction" instead!