Oops, an error
Loading. Please wait.

Grade A One Tab

version 1
version 1

Whole song

Interactive

642 views 1 this week
no commentswrite comment
1 2 3 4 5
please rate
add to favorites
launch autoscroll
font size
0
reset
how to read this tab
guitar tuner
Autoscroll
slow
fast
+/-
esc
set tempo
stop
Help us to improve Ultimate-Guitar.com Take our survey!
×
Author
Difficulty
advanced
                      
                      --- D E S P I S E D    I C O N  ---
                                "Grade A One"
                     From album: "Consumed By Your Poison"
                    
                                  By Bryan
                     

                            TABULATURE LEGEND:
                   " - tremolo             h - hammer on           
                   ~ - vibrato             \ - slide down
                   p - pull off            / - slide down
                  tr - tremolo picking     ^ - pinch harmonics     
                   = - sustained note      b - bend string         
                p.m. - palm muting         t - tapping
                           <> - natural harmonics

TUNING: B [B, E, A, d, g, B]

[Intro]
|------------------------------------------|
|------------------------------------------|
|------------------------------------------|
|-----6---------------5--------------------|
|-----6-5-------2-6-4---4-55665566-7-8-7-8-|
|-444---5-4-0-1--------------------5-6-5-6-|
| ... . . . . . . . . . . ........ . . . . |
|------------------------------------------|
|------------------------------------------|
|------------------------------------------|
|-----6---------------5--------------------|
|-----6-5-------2-6-4---4----------7-8-7-8-|
|-444---5-4-0-1--------------------5-6-5-6-|
  ... . . . . . . . . . .          . . . .

[Riff 1 (x4)]
||--------------------------------------------||
||o------------------------------------------o||
||--------------------------------------------||
||------6---------------5---------------------||
||o-----6-5-------2-6-4---4-55665566-7-8-7-8-o||
||--444---5-4-0-1--------------------5-6-5-6--||
    ... . . . . . . . . . . ........ . . . .

[Outro 1]
|---------------------------------|----------------------------------|
|---------------------------------|----------------------------------|
|---------------------------------|----------------------------------|
|---------------4---------------6-|---------------4-------------3322-|
|-4-5-4-2-445-3-2-445-4-3-5-6-5-4-|-4-5-4-2-445-3-2-445-4-3-44553322-|
|-2-3-2-0-223-1---223-2-1-3-4-3---|-2-3-2-0-223-1---223-2-1-4455-----|
| . . . . ... .   ... . . . . .   | . . . . ... .   ... . . ........ |
|---------------------------------|----------------------------------|
|---------------------------------|----------------------------------|
|---------------------------------|----------------------------------|
|---------------4-----------------|---------------4-------------3322-|
|---------445-3-2-445-4-3---------|---------445-3-2-445-4-3-44553322-|
|---------223-1---223-2-1---------|---------223-1---223-2-1-4455-----|
          ... .   ... . .                   ... .   ... . . ........

[Riff 2 (x3)]
||----------------------------------|-----------------------------------||
||o---------------------------------|----------------------------------o||
||----------------------------------|-----------------------------------||
||----------------4---------------6-|---------------4-------------3322--||
||o-4-5-4-2-445-3-2-445-4-3-5-6-5-4-|-4-5-4-2-445-3-2-445-4-3-44553322-o||
||--2-3-2-0-223-1---223-2-1-3-4-3---|-2-3-2-0-223-1---223-2-1-4455------||
    . . . . ... .   ... . . . . .     . . . . ... .   ... . . ........

[RIFF 1 (x4)]

[Outro 2]                         [Riff 3 (x2)]
|---------------------------------||-----------------------------------||
|---------------------------------||o---------------------------------o||
|---------------------------------||-----------------------------------||
|---------------------------------||-----------------------------------||
|-4-7-6-0-5-6-5-4-4-7-6-0-4-5-4-7-||o-4-7-6-0-5-6-5-4-4-7-6-0-4-5-4-7-o||
|-4-5-4-0-3-4-3-2-4-5-4-0-4-5-4-7-||--4-5-4-0-3-4-3-2-4-5-4-0-4-5-4-7--||
|                                 |   . . . . . . . . . . . . . . . .   |
|---------------------------------||-----------------------------------||
|---------------------------------||o---------------------------------o||
|---------------------------------||-----------------------------------||
|---------------------------------||-----------------------------------||
|-4---------------4-------4-5-4-7-||o-4-7-6-0-5-6-5-4-4-7-6-0-4-5-4-7-o||
|-4---------------4-------4-5-4-7-||--4-5-4-0-3-4-3-2-4-5-4-0-4-5-4-7--||
  .               .                   . . . . . . . . . . . . . . . .

[RIFF 3 (x2) /without palm muting/]

[Outro 3]
|---------------------------------|
|---------------------------------|
|---------------------------------|
|---------------------------------|
|-------------------------7-6-7\6-|
|-4-3-2/3\1~--4-3-2/3\1~--5-4-5\4-|
| . .         . .         . .     |
|---------------------------------|
|---------------------------------|
|---------------------------------|
|---------------------------------|
|-4-----------------------7-6-7\6-|
|-4-----------------------5-4-5\4-|
  .                       . .

[Riff 4 (x3)]
||----------------------------------|---------------------------------|-
||o---------------------------------|---------------------------------|-
||----------------------------------|---------------------------------|-
||----------------------------------|---------------------------------|-
||o-------------------------7-6-7\6-|-------------------------7-6-7\6-|-
||--4-3-2/3\1~--4-3-2/3\1~--5-4-5\4-|-4-3-2/3\1~--4-3-2/3\1~--5-4-5\4-|-
    . .         . .         . .       . .         . .         . .

-|-------------------------------|------------------------------||
-|-------------------------------|-----------------------------o||
-|-------------------------------|------------------------------||
-|-------------------------------|------------------------------||
-|-7-6-5/6-5--7-6-5/6-5----------|-6-5-4/5-3--6-5-4/5-3-7-6-7--o||
-|-5-4-3/4-3--5-4-3/4-3--7-6-7\3-|-4-3-2/3-1--4-3-2/3-1-5-4-5---||
   . .        . .        . .       . .        . .       . . .

[Riff 5 (x4)]
||-----------------------------------||
||o---------------------------------o||
||-----------------------------------||
||--------------------------^--------||
||o-2-1-6-7-6-5-9-8--5-4--3-3~~-4-3-o||
||--2-1-4-5-6-5-7-6--3-2--1-----2-1--||
    . . . . . . . .  . .  .     . .

[Riff 6 (x2)]
||-------------------------------------------||
||o-----------------------------------------o||
||-------------------------------------------||
||-------------------------------------------||
||o-2-1-6-7-6-5-9-8-2-1-6-7-4h5p4---3h4p3---o||
||--2-1-4-5-6-5-7-6-2-1-4-5-------5-------4--||
    . . . . . . . . . . . .

[RIFF 6 (x2) /without palm muting/]
[RIFF 6 (x2) /palm muting/]
[RIFF 6 (x2) /without palm muting/]

[Riff 7 (x2)]
||----------------------<5>-----------------------|-
||o------------------------<5>--------------------|-
||----------------------------<5>-----------------|-
||-------------------------------<5>--------------|-
||o-33-11-44-11-0-1-2-3-------------<5><5>--------|-
||--33-11-44-11-0-1-0-1--------------------0-5tr6-|-
    .. .. .. .. . . . .

-----<5>-----------------------|-----<5>------------------------||
--------<5>--------------------|--------<5>--------------------o||
-----------<5>-----------------|-----------<5>------------------||
--------------<5>--------------|--------------<5>---------------||
-2-3-------------<5><5>--------|-2-3-------------<5><5>--------o||
-0-1--------------------0-5tr6-|-0-1--------------------0-5tr6--||
 . .                             . .

[Outro 4]
|-----------------|
|-----------------|
|-----------------|
|-----------------|
|-33-11-44-11-0-1-|
|-33-11-44-11-0-1-|
  .. .. .. .. . .

[Riff 8 (x2)]
||------<5>-------------------<5>--------------------<5>---------------------------||
||o--------<5>-------------------<5>--------------------<5>-----------------------o||
||------------<5>-------------------<5>--------------------<5>---------------------||
||---------------<5>-------------------<5>--------------------<5>------------------||
||o-2-3-------------<5><5>-2-3------------<5><5>-2-3-------------<5><5>--------1--o||
||--0-1--------------------0-1-------------------0-1--------------------2121-0-1---||
    . .                    . .                   . .

|-------------------|-------------------------|
|-------------------|-------------------------|
|-------------------|-------------------------|
|-------------------|-------------------------|
|--------1--------1-|-9999999999999999-2=====-|
|-2121-0-1-2121-0-1-|-7777777777777777-0=====-|

END OF SONG
Suggest correction
Give kudos to tab author, rate the tab!
1 2 3 4 5
comments
print report bad tab
guest
You may want to rate the tab now too:
select rating
Please do not post tabs as comments. Select "correction" instead!