Oops, an error
Loading. Please wait.

Just For Love Tab

version 1
version 1

Whole song

2,237 views 3 this week
no commentswrite comment
1 2 3 4 5
please rate
add to favorites
launch autoscroll
font size
0
reset
how to read this tab
guitar tuner
Tab Pro tools
  • play this tab
  • loop segment
  • change instrument
  • show fretboard
  • metronome
Autoscroll
slow
fast
+/-
esc
set tempo
stop
Contributor
Just for Love - Destiny [Rewind Version]
(acoustic)
Standard Tunning
Original song is capo on first fret and played the same

Order: Verse[6x],Entering Chorus,Chorus,Solo,Verse[3x],Entering Chorus,Chorus,Ending Solo

Intro

     A Chord       E Chord    F#m Chord    D Chord
|-----------0-|---------------|----------|------------|
|-2--2-2-2-3--|-------0-0h2-0-|-2--2-2-0-|--3--3-3--0-|
|---2---2-----|--1-1h2--------|---2------|-2--2----2--|
|--2----------|-2-------------|--4----4--|---0----0---|
|-0----0------|---------------|-4----4---|--0----0----|
|-----------0-|---------------|----------|------------|


verses:

 A Chord   E Chord F#m Chord  D Chord
|----0----|----0---|-----2----|----2----|
|-2----2--|-0----0-|-2------2-|-3-----0-|
|---2---1-|---1----|---2---4--|---2--2--|
|--2--2---|--2--2--|--4---4---|--0--0---|
|-0-------|-2------|-4--------|-0-------|
|----0----|----0---|-----2----|----0----|

entering chorus:

 E Chord
|----0----|
|-0-----0-|
|---1--2--|
|--2--2---|
|-2-------|
|----0----|

chorus:

 A Chord   E Chord  F#m Chord  D Chord
|----0----|----0----|-----2----|----2----|
|-2----2--|-0-----0-|-2------2-|-3-----0-|
|---2---1-|---1--2--|---2---4--|---2--2--|
|--2--2---|--2--2---|--4---4---|--0--0---|
|-0-------|-2-------|-4--------|-0-------|
|----0----|----0----|-----2----|----0----|

 A Chord   E Chord  F#m Chord  C#m Chord D      E     A      E
|----0----|----0----|-----2----|----4-4--|-2--0-|-0----|-0----|-0------|
|-2----2--|-0-----0-|-2------2-|-5--5-5--|-3--0-|-0--0-|-2--0-|-0----0-|
|---2---1-|---1--2--|---2---4--|---6---6-|---2--|-1-1--|---2--|---1h2--|
|--2--2---|--2--2---|--4---4---|--6------|--0---|--2---|--2---|--2-----|
|-0-------|-2-------|-4--------|-4-------|-0----|-2----|-0----|-2------|
|----0----|----0----|-----2----|----4-4--|------|------|------|--------|

Solo:

 (hold the A chord for easy tabbing)        D Chord
|------------------0h2-0-------------------|----0h2-----|
|-0h2--2h3-2--0-0---------0-0h2---2h3-2-0--|-3-----3--0-|
|-----2-----2--2--2------2------2------2-2-|---2-----2--|
|----2-----------2------2------2-----------|--0-----0---|
|-0----0--------------------0-----0--------|-0----------|
|---------------0--0-----------------------|----0-------|

Ending solo:

 (hold the A chord for easy tabbing)        D Chord
|------------------0h2-0-------------------|----0h2-----|
|-0h2--2h3-2--0-0---------0-0h2---2h3-2-0--|-3-----3--0-|
|-----2-----2--2--2------2------2------2-2-|---2-----2--|
|----2-----------2------2------2-----------|--0-----0---|
|-0----0--------------------0-----0--------|-0----------|
|---------------0--0-----------------------|----0-------|

 A Chord     E Chord      F#m Chord  D Chord        A
|-----------|-------------|----------|-------------|---|
|-2--2-2-0--|-0--0h2-2--0-|-2--2-2-0-|--3--3-3---0-|-2-|
|---2---2-2-|---1------1--|---2------|-2--2-----2--|---|
|--2--------|--2------2---|--4----4--|---0-----0---|---|
|-0----0----|-2-----------|-4----4---|--0-----0----|-0-|
|-----------|-------------|----------|-------------|---|

comments
We did not receive enough feedback on this tab! Please rate:
print report bad tab
1 2 3 4 5
I want to post or [tab]
guest
You may want to rate the tab now too:
select rating
Please do not post tabs as comments. Select "correction" instead!