Oops, an error
Loading. Please wait.

Emotions Tab

version 1
version 1

Whole song

48,947 views 33 this week
3 commentsread comments
1 2 3 4 5
x 17
add to favorites
launch autoscroll
font size
0
reset
how to read this tab
guitar tuner
×
Best way to learn
"Emotions"
Autoscroll
slow
fast
+/-
esc
set tempo
stop
Author
[Intro]
    C7                       F/G
e|---------------------------------------------------------------------|
B|--1-0-----0--1--0-------------1---1-1-1---1--------------------------|
G|--0----2-----------2--0-0-----0---0-0-0---0--------------------------|
D|------------------------------------------0--------------------------|
A|--3-3--3-----3-----3----------------------2--------------------------|
E|----------------------------3-----3-3-3---3--------------------------|                                     
     (yeah)

[Verse]
    C7                       Em            C#(?)
e|---------------------------------------------------------------------|
B|--1-0-----0--1--0------------0-----0-0------------5------------------|
G|--0----2-----------2--0------0-----0-0---------3---------------------|
D|--------------------------------------------2------------------------|
A|--3-3--3-----3-----3---------------------4---------------------------|
E|---------------------------0-----0-----------------------------------|
It's over and done...

    Dm7(?)            F/G             C7
e|----0----0h3p0----------------------------------------------------------|
B|----1--------1---------1---1-1-0------1-0-------------------------------|
G|---------------2-------0---0-0-0------0---2---0-------------------------|
D|--0----0------------------------------------2---------------------------|
A|------------------------------------3-----------------------------------|
E|--------------------0--3---3-3-3----------------------------------------|

[Bridge]
               Dm7(?)              C
e|---------------------------------------------------------------------|
B|-------------6-6----6h8----6-------0------0--------------------------|
G|----0-2-3----5-5-----------5-------0------0--------------------------|
D|--2------------------------------------------------------------------|
A|-------------5----5------5-------3----3-3----------------------------|
E|---------------------------------------------------------------------|
and where are you now...

      Dm7(?)       C
e|---------------------------------|----------------------------|
B|------6-6---6------0-0----0------|----------------------------|
G|.-----5-5---5------0-0----0-----.|---[repeat]-----------------|
D|.-------------------------------.|----------------------------|
A|----5-----5------3------3--------|----------------------------|
E|---------------------------------|----------------------------|

                   F/G
e|---------------------------------------------------------------------|
B|-------------------1---1-1-0---1-------------------------------------|
G|-------------------0---0-0-0---0-----------0--2--4-------------------|
D|---------------------------------------------------------------------|
A|----------------------------------------------0--2-------------------|
E|-----------------3-----3-3-3---3-----------3-------------------------|
you'll never see me fall apart...    ...heart it's just

[Chorus]
    Am           Em
e|---------------------------|-----------------------------------------|
B|----1-----1------0-----0---|-----------------------------------------|
G|.---2-----2------0-----0--.|--[repeat]-------------------------------|
D|.-------------------------.|-----------------------------------------|
A|--0---0-0------------------|-----------------------------------------|
E|---------------0---0-0-----|-----------------------------------------|

       F       Em            Am
e|---------------------------------------------------------------------|
B|------1-------0-------------1-----1----------------------------------|
G|------2-------0-------------2-----2----------------------------------|
D|---------------------------------------------------------------------|
A|--------------------------0---0-0------------------------------------|
E|--0-1-----1-0--------------------------------------------------------|
   come back come home to me darlin' you know there'll be

    F/G                F        F/G            G/F(?)
e|---------------------------------------------------------------------|
B|----1---1-1-----1--------1------1-------1--------0-------------------|
G|----0---0-0-----0------2--------0-------0------0---------------------|
D|---------------------3-----------------------3-----------------------|
A|---------------------------------------------------------------------|
E|--3---3-3-3---3---------------3---3-3-3------------------------------|
no body left...


[Intro]
    C7                       F/G
e|---------------------------------------------------------------------|
B|--1-0-----0--1--0-------------1---1-1-1---1--------------------------|
G|--0----2-----------2--0-0-----0---0-0-0---0--------------------------|
D|------------------------------------------0--------------------------|
A|--3-3--3-----3-----3----------------------2--------------------------|
E|----------------------------3-----3-3-3---3--------------------------|                                     
     (yeah)

[Verse]
    C7                       Em            C#(?)
e|---------------------------------------------------------------------|
B|--1-0-----0--1--0------------0-----0-0------------5------------------|
G|--0----2-----------2--0------0-----0-0---------3---------------------|
D|--------------------------------------------2------------------------|
A|--3-3--3-----3-----3---------------------4---------------------------|
E|---------------------------0-----0-----------------------------------|
It's over and done...

    Dm7(?)            F/G             C7
e|----0----0h3p0----------------------------------------------------------|
B|----1--------1---------1---1-1-0------1-0-------------------------------|
G|---------------2-------0---0-0-0------0---2---0-------------------------|
D|--0----0------------------------------------2---------------------------|
A|------------------------------------3-----------------------------------|
E|--------------------0--3---3-3-3----------------------------------------|

[Chorus]
    Am           Em
e|---------------------------|-----------------------------------------|
B|----1-----1------0-----0---|-----------------------------------------|
G|.---2-----2------0-----0--.|--[repeat]-------------------------------|
D|.-------------------------.|-----------------------------------------|
A|--0---0-0------------------|-----------------------------------------|
E|---------------0---0-0-----|-----------------------------------------|

       F       Em            Am
e|---------------------------------------------------------------------|
B|------1-------0-------------1-----1----------------------------------|
G|------2-------0-------------2-----2----------------------------------|
D|---------------------------------------------------------------------|
A|--------------------------0---0-0------------------------------------|
E|--0-1-----1-0--------------------------------------------------------|
   come back come home to me darlin' you know there'll be

    F/G                F        F/G            G/F(?)
e|---------------------------------------------------------------------|
B|----1---1-1-----1--------1------1-------1--------0-------------------|
G|----0---0-0-----0------2--------0-------0------0---------------------|
D|---------------------3-----------------------3-----------------------|
A|---------------------------------------------------------------------|
E|--3---3-3-3---3---------------3---3-3-3------------------------------|
no body left...


************************************

| h  Hammer-on
| p  Pull-off

************************************
Suggest correction
comments
print report bad tab
3 comments total.
-1 reply
serenade_edy 332 Jul 04, 2007 06:27 PM

bro rong to pati ung c dm7 and ung isa but nice anyway

guest
You may want to rate the tab now too:
select rating
Wanna post a correction for this tab? Suggest correction