Oops, an error
Loading. Please wait.

Columbia Tab

version 2
version 2

Intro

Whole song

Interactive

1,398 views 1 this week
4 commentsread comments
1 2 3 4 5
worth learning
x 3
add to favorites
launch autoscroll
font size
0
reset
how to read this tab
guitar tuner
Autoscroll
slow
fast
+/-
esc
set tempo
stop
Help us to improve Ultimate-Guitar.com Take our survey!
×
Difficulty
intermediate
Columbia- Destroy the Runner

KEY:
h-hammer on
po- pull off
*- pinch harmonic
v- bend down
^- bend up
~- vibratox
x- palm mute

[INTRO]

GUITAR 1
e|----------------------------------------------------------------|
B|-----------------------------------------------8-7---8-7--------|
G|------------------5-------8-7--5-5-------5----------7------5----|
D|-----------5---------8-5-----------5h6h7---7--------------------|
A|---3-3--6-----6-------------------------------------------------|
E|----------------------------------------------------------------|

GUITAR 2
e|-------------------------------------|--------------|-----------|
B|-------------------------------------|--------------|-----------|
G|-------------------------------------|--------------|-----------|
D|---3---------------------------------|-5------------|-6---------|
A|---3---------------------------------|-5------------|-6---------|
E|---3---------------------------------|-5------------|-6---------|
    [...............hold..............] [....hold....] [...hold...]

GUITAR 1
e|----------------------------------------------------------------|
B|-----------------------------------------------8-7-------10*~---|
G|------------------5-------8-7--5-5-------5----------7-----------|
D|-----------5---------8-5-----------5h6h7---7--------------------|
A|---3-3--6-----6-------------------------------------------------|
E|----------------------------------------------------------------|

GUITAR 2
e|-------------------------------------|--------------|-----------|
B|-------------------------------------|--------------|-----------|
G|-------------------------------------|--------------|-----------|
D|---3---------------------------------|-5------------|-6---------|
A|---3---------------------------------|-5------------|-6---------|
E|---3---------------------------------|-5------------|-6---------|
    [...............hold..............] [....hold....] [...hold...]

GUITAR 1
e|----------------------------------------------------------------|
B|-----------------------------------------------8-7---8-7--------|
G|------------------5-------8-7--5-5-------5----------7------5----|
D|-----------5---------8-5-----------5h6h7---7--------------------|
A|---3-3--6-----6-------------------------------------------------|
E|----------------------------------------------------------------|
     
GUITAR 2
e|-------------------------------------|--------------|-----------|
B|-------------------------------------|--------------|-----------|
G|-------------------------------------|--------------|-----------|
D|---3--x---xxx--xxx-------xxx---x--x--|-5--x--xxx----|-6---------|
A|---3--x---xxx--xxx-------xxx---x--x--|-5--x--xxx----|-6---------|
E|---3--x---xxx--xxx-------xxx---x--x--|-5--x--xxx----|-6---------|

GUITAR 1
e|----------------------------------------------------------------|
B|-----------------------------------------------8-7-------10*~---|
G|------------------5-------8-7--5-5-------5----------7-----------|
D|-----------5---------8-5-----------5h6h7---7--------------------|
A|---3-3--6-----6-------------------------------------------------|
E|----------------------------------------------------------------|

GUITAR 2
e|-------------------------------------|--------------|-----------|
B|-------------------------------------|--------------|-----------|
G|-------------------------------------|--------------|-----------|
D|---3--x---xxx--xxx-------xxx---x--x--|-5--x--xxx----|-6---------|
A|---3--x---xxx--xxx-------xxx---x--x--|-5--x--xxx----|-6---------|
E|---3--x---xxx--xxx-------xxx---x--x--|-5--x--xxx----|-6---------|
Suggest correction
What's this?
You can suggest a correction to this tab. Community and Mods will review your correction and vote to approve or reject it.
comments
We did not receive enough feedback on this tab! Please rate:
print report bad tab
1 2 3 4 5
4 comments total. Showing first comments.
0 reply
k_sanders 236 wrote on June 14 2007, 12:17 pm

the intro riff is way off! sorry man but nice try.

0 reply
k_sanders 236 wrote on June 14 2007, 12:24 pm

the only part that is wrong is at he end of bar 1. its 3h7 not 4h7.

0 reply
k_sanders 236 wrote on June 14 2007, 12:25 pm

oopps.... the last comment was meant for another song. sorry about that.

guest
You may want to rate the tab now too:
select rating
Please do not post tabs as comments. Select "correction" instead!