Oops, an error
Loading. Please wait.

Dialogue Bass Tab

version 1
version 1

Whole song

Interactive

136 views 1 this week
no commentswrite comment
1 2 3 4 5
3 more votes to show rating
add to favorites
launch autoscroll
font size
0
reset
guitar tuner
Autoscroll
slow
fast
+/-
esc
set tempo
stop
Help us to improve Ultimate-Guitar.com Take our survey!
×
Author
Difficulty
Tuning
novice
C G C F A D
Destroy the Runner
Dialogue
Album, Saints
Tunning Drop C

F|-------------------|-------------------|-------------------|
C|-------------------|-------------------|-------------------|
G|-------------------|-------------------|-------------------|
C|--5----------------|--3----------------|--1~---------------|


F|------------------|-------------------|-------------------|--------------|
C|------------------|-------------------|-------------------|--------------|
G|------------------|-------------------|-------------------|--------------|
C|-3----------------|--5----------------|--3----------------|--1-----------|

F|-------------------|-------------------|-------------------|-------------|
C|-------------------|-------------------|-------------------|-------------|
G|-------------------|-------------------|-------------------|-------------|
C|--3----------------|--5----------------|--3----------------|--1----------|


F|-------------------|-------------------|-------------------|-------------|
C|-------------------|-------------------|-------------------|-------------|
G|-------------------|-------------------|-------------------|-------------|
C|--3----------------|--5----------------|--3----------------|--1----------|


F|-------------------|----------------------------------|
C|-------------------|----------------------------------|
G|-------------------|----------------------------------|
C|--3~---------------|--5-5-5-5-5-5-5-5-5-5-5-5-5-5-5-5-|

F|----------------------------------|----------------------------------|
C|----------------------------------|----------------------------------|
G|----------------------------------|----------------------------------|
C|--3-3-3-3-3-3-3-3-3-3-3-3-3-3-3-3-|--1-1-1-1-1-1-1-1-1-1-1-1-1-1-1-1-|


F|----------------------------------|----------------------------------|
C|----------------------------------|----------------------------------|
G|----------------------------------|----------------------------------|
C|--3-3-3-3-3-3-3-3-3-3-3-3-3-3-3-3-|--5-5-5-5-5-5-5-5-5-5-5-5-5-5-5-5-|


F|----------------------------------|----------------------------------|
C|----------------------------------|----------------------------------|
G|----------------------------------|----------------------------------|
C|--3-3-3-3-3-3-3-3-3-3-3-3-3-3-3-3-|--1-1-1-1-1-1-1-1-1-1-1-1-1-1-1-1-|


F|----------------------------------|--------------------|
C|----------------------------------|--------------------|
G|----------------------------------|--------------------|
C|--3-3-3-3-3-3-3-3-3-3-3-3-3-3-3-3-|--0~~---------------|


This should be correct, listen to the song for timing but should be easy to figure out 
way, DESTROY THE RUNNER ROCKK !!!!!!!!!!
Suggest correction
Give kudos to tab author, rate the tab!
1 2 3 4 5
comments
print report bad tab
guest
You may want to rate the tab now too:
select rating
Wanna post a correction for this tab? Suggest correction