Oops, an error
Loading. Please wait.

Its Always Cold In Paris Bass Tab

295 views 1 this week
no commentswrite comment
1 2 3 4 5
please rate
add to favorites
launch autoscroll
font size
0
reset
guitar tuner
Autoscroll
slow
fast
+/-
esc
set tempo
stop
Help us to improve Ultimate-Guitar.com Take our survey!
×
Author
Difficulty
Tuning
novice
D A D G B E
Song: It's Always Cold In Paris
Artist: Destroy the Runner
Tuning: Drop D


Intro (0:00)

|----------------------------------------|
|----------------------------------------|
|----------------------------------------|
|7-7-7-777-5-5-5-555-3-3-3-333-2-2-2-555-|


|----------------------------------------|
|----------------------------------------|
|----------------------------------------|
|7-7-7-777-5-5-5-555-3-3-3-333-2~----5~--|


Verse (0:15)

|-----------------------------------|
|-----------------------------------|
|-----------------------------------|
|7(x16)---10(x16)---5(x16)---0(x16)-|


|-------------------------------------------------------|
|-------------------------------------------------------|
|-------------------------------------------------------|
|7(x16)---10(x16)---5(x16)---0(x16)---3(x16)--2~---5~---|


Chorus (0:40)

|--------------------------------------------------------------------|
|--------------------------------------------------------------------|
|--------------------------------------------------------------------|
|7-7-77-7-77-77-7-5-5-55-5-55-55-5-3-3-33-3-33-33-3-2-2-22-5-55-55-5-|


|---------------------------------------------------------------|
|---------------------------------------------------------------|
|---------------------------------------------------------------|
|7-7-77-7-77-77-7-5-5-55-5-55-55-5-3-3-33-3-33-33-3-2---2---5~--|


Verse (0:59)

|-----------------------------------|
|-----------------------------------|
|-----------------------------------|
|7(x16)---10(x16)---5(x16)---0(x16)-|


|-------------------------------------------------------|
|-------------------------------------------------------|
|-------------------------------------------------------|
|7(x16)---10(x16)---5(x16)---0(x16)---3(x16)--2~---5~---|


Bridge (1:23) "Winter has lasted too long..."

|----------------------------|
|----------------------------|
|----------------------------|
|7~-----5~-----3~-----2~-----|


|-------------------------------|
|-------------------------------|
|-------------------------------|
|7~-----9~-----10~-----12~------|


|------------------------------------------------|
|------------------------------------------------|
|------------------------------------------------|
|7-7-7-7-7-7-5-5-5-5-5-5-3-3-3-3-3-3-2-2-2-2-2-2-|


|---------------------------------------------------------------------------|
|---------------------------------------------------------------------------|
|---------------------------------------------------------------------------|
|7-7-7-7-7-7-9-9-9-9-9-9-10-10-10-10-10-10-10-12-12-12-12-12-12-12-12-12-12~|


Chorus (1:54)

|--------------------------------------------------------------------|
|--------------------------------------------------------------------|
|--------------------------------------------------------------------|
|7-7-77-7-77-77-7-5-5-55-5-55-55-5-3-3-33-3-33-33-3-2-2-22-5-55-55-5-| (x2)


(2:14) "It's crumbing, ripping, and failing..."


|--------------------------------------------------------------------|
|--------------------------------------------------------------------|
|--------------------------------------------------------------------|
|7-7-77-7-77-77-7-5-5-55-5-55-55-5-3-3-33-3-33-33-3-2-2-22-5-55-55-5-|


|--------------------------------------------------------------------|
|--------------------------------------------------------------------|
|--------------------------------------------------------------------|
|7-7-77-7-77-77-7-5-5-55-5-55-55-5-3-3-33-3-33-33-3-2-2-22-5-55-55-5-|


|--------------------------------------|
|--------------------------------------|
|--------------------------------------|
|7-7-77-7-77-77-7-7-7-77-7-77-77-7-7777|


There it is! Please rate and comment! :]

Suggest correction
Give kudos to tab author, rate the tab!
1 2 3 4 5
comments
print report bad tab
guest
You may want to rate the tab now too:
select rating
Please do not post tabs as comments. Select "correction" instead!