Oops, an error
Loading. Please wait.

My Darkness Bass Tab

version 1
version 1

Whole song

Interactive

855 views 1 this week
1 commentread comment
1 2 3 4 5
please rate
add to favorites
launch autoscroll
font size
0
reset
guitar tuner
Autoscroll
slow
fast
+/-
esc
set tempo
stop
Help us to improve Ultimate-Guitar.com Take our survey!
×
Author
Tuning
C G C F A D
#----------------------------------PLEASE NOTE---------------------------------#
#This file is the author's own work and represents their interpretation of the #
#song. You may only use this file for private study, scholarship, or research. #
#------------------------------------------------------------------------------#



	



Gtr I (C G C F) - 'Untitled'

  Q=180
 4/4
  Gtr I
  Wx8          H..       E     +E  E Q  E E E +E
|------------|-------------||---------------------|
|------------|-------------||o--------------------|
|------------|-------------||o--------------------|
|------------|-----------0-||--(0)-0-0--0-0-0-(0)-|


  E E Q  E E E E   +E  E Q  E E E E   +E  E Q  E E E E  3x
|----------------|------------------|-------------------||
|----------------|------------------|------------------o||
|----------------|------------------|------------------o||
|-0-0-0--0-0-0-8-|-(8)-8-8--8-8-8-5-|-(5)-5-5--5-5-5-0--||


  E E Q  E E E +E    E E Q  E E E E
|------------------|----------------|
|------------------|----------------|
|------------------|----------------|
|---0-0--0-0-0-(0)-|-0-0-0--0-0-0-8-|


                    6/4
  +E  E Q  E E E E   +E  E Q  S S E Q  S S E Q
|------------------|------------------------------|
|------------------|------------------------------|
|------------------|------------------------------|
|-(8)-8-8--8-8-8-5-|-(5)-5-5--0-0-0----0-0-0------|


 4/4
  S S E Q  E E E E   E E E E E E E E   E E E E E E E E    S  S  E Q  S S E Q
|------------------|-----------------|-----------------|----------------------|
|------------------|-----------------|-----------------|----------------------|
|------------------|-----------------|-----------------|----------------------|
|-0-0-0----7---7---|-7---7---5---5---|-5---5---8---8---|-10-10-10----0-0-0----|


  H    E E E E   E E E E E E E E   E E E E  E E  E E   S S E Q  S S E Q
|--------------|-----------------|-------------------|-------------------|
|--------------|-----------------|-------------------|-------------------|
|--------------|-----------------|-------------------|-------------------|
|------7---7---|-7---7---8---8---|-8---8---10---10---|-8-8-8----0-0-0----|


  S S E Q  E E E E   E E E E E E E E   E E E E E E E E    S  S  E Q  S S E Q
|------------------|-----------------|-----------------|-----------------------|
|------------------|-----------------|-----------------|-----------------------|
|------------------|-----------------|-----------------|-----------------------|
|-0-0-0----7---7---|-7---7---5---5---|-5---5---8---8---|-10-10-10----0-0-0-----|


                                                      2/4
  H    E E E E   E E E E E E E E   E E E E  E E  E E   E E E E
|--------------|-----------------|-------------------|---------|
|--------------|-----------------|-------------------|---------|
|--------------|-----------------|-------------------|---------|
|------7---7---|-7---7---8---8---|-8---8---10---10---|-8-8-8-0-|


   4/4
    +E  E Q  E E E +E    E E Q  E E E E
||---------------------|----------------|
||o--------------------|----------------|
||o--------------------|----------------|
||--(0)-0-0--0-0-0-(0)-|-0-0-0--0-0-0-8-|


  +E  E Q  E E E E   +E  E Q  E E E E  4x
|------------------|-------------------||
|------------------|------------------o||
|------------------|------------------o||
|-(8)-8-8--8-8-8-5-|-(5)-5-5--5-5-5-0--||


  +Q   Q  E E E +E    +Q   Q  E E E E   +E  E Q  E E E E   +E  E Q  E E E E
|-------------------|-----------------|------------------|------------------|
|-------------------|-----------------|------------------|------------------|
|-------------------|-----------------|------------------|------------------|
|-(0)--0--0-0-0-(0)-|-(0)--0--0-0-0-8-|-(8)-8-8--8-8-8-5-|-(5)-5-5--3-3-3-0-|


  +Q   Q  E E E +E    +Q   Q  E E E E   +E  E Q  E E E E   +E  E Q  E Q  E
|-------------------|-----------------|------------------|-----------------|
|-------------------|-----------------|------------------|-----------------|
|-------------------|-----------------|------------------|-----------------|
|-(0)--0--0-0-0-(0)-|-(0)--0--0-0-0-8-|-(8)-8-8--8-8-8-5-|-(5)-5-5--5-3--0-|


  +Q   Q  E E E +E    +Q   Q  E E E E   +E  E Q  E E E E   +E  E Q  E E E E
|-------------------|-----------------|------------------|------------------|
|-------------------|-----------------|------------------|------------------|
|-------------------|-----------------|------------------|------------------|
|-(0)--0--0-0-0-(0)-|-(0)--0--0-0-0-8-|-(8)-8-8--8-8-8-5-|-(5)-5-5--3-3-3-0-|


  +Q   Q  E E E +E    +Q   Q  E E E E   +E  E Q  E E E E   +E  E Q  E Q.
|-------------------|-----------------|------------------|-----------------|
|-------------------|-----------------|------------------|-----------------|
|-------------------|-----------------|------------------|-----------------|
|-(0)--0--0-0-0-(0)-|-(0)--0--0-0-0-8-|-(8)-8-8--8-8-8-5-|-(5)-5-5--5-3----|


 6/4                          4/4
  S S E Q  S S E Q  S S E Q       H  E E E E
|----------------------------|---------------|
|----------------------------|---------------|
|----------------------------|---------------|
|-0-0-0----0-0-0----0-0-0----|-------7---7---|


  E E E E E E E E   E E E E E E E E    S  S  E Q  S S E Q
|-----------------|-----------------|------------------------|
|-----------------|-----------------|------------------------|
|-----------------|-----------------|------------------------|
|-7---7---5---5---|-5---5---8---8---|-10-10-10----0-0-0------|


  H    E E E E   E E E E E E E E   E E E E  E E  E E   S S E Q  S S E Q
|--------------|-----------------|-------------------|-------------------|
|--------------|-----------------|-------------------|-------------------|
|--------------|-----------------|-------------------|-------------------|
|------7---7---|-7---7---8---8---|-8---8---10---10---|-8-8-8----0-0-0----|


  H    E E E E   E E E E E E E E   E E E E E E E E    S  S  E Q  S S E Q
|--------------|-----------------|-----------------|----------------------|
|--------------|-----------------|-----------------|----------------------|
|--------------|-----------------|-----------------|----------------------|
|------7---7---|-7---7---5---5---|-5---5---8---8---|-10-10-10----0-0-0----|


  H    E E E E   E E E E E E E E   E E E E  E E  E E   E E  Q  E E  Q
|--------------|-----------------|-------------------|-----------------|
|--------------|-----------------|-------------------|-----------------|
|--------------|-----------------|-------------------|-----------------|
|------7---7---|-7---7---8---8---|-8---8---10---10---|-8-8-----0-0-----|


  H    E E E E   E E E E E E E E   E E E E E E E E    E  E  Q  E E  Q
|--------------|-----------------|-----------------|-------------------|
|--------------|-----------------|-----------------|-------------------|
|--------------|-----------------|-----------------|-------------------|
|------7---7---|-7---7---5---5---|-5---5---8---8---|-10-10-----0-0-----|


  H    E E E E   E E E E E E E E   E E E E  E E  E E   E E Q  E E Q
|--------------|-----------------|-------------------|---------------|
|--------------|-----------------|-------------------|---------------|
|--------------|-----------------|-------------------|---------------|
|------7---7---|-7---7---8---8---|-8---8---10---10---|-8-8----0-0----|


  H    E E E E   E E E E E E E E   E E E E E E E E    E  E Q  E E Q
|--------------|-----------------|-----------------|-----------------|
|--------------|-----------------|-----------------|-----------------|
|--------------|-----------------|-----------------|-----------------|
|------7---7---|-7---7---5---5---|-5---5---8---8---|-10-10----0-0----|


  H    E E E E   E E E E E E E E   E E E E  E E  E E   W
|--------------|-----------------|-------------------|------|
|--------------|-----------------|-------------------|------|
|--------------|-----------------|-------------------|------|
|------7---7---|-7---7---8---8---|-8---8---10---10---|------|


  S S S S S S S E S S S S S E   S S S S S S S E S S S S S E
|-----------------------------|-----------------------------|
|-----------------------------|-----------------------------|
|-----------------------------|-----------------------------|
|-0-0-0---0-0-0---0-0---0-0---|-0-0-0---0-0-0---0-0---0-0---|


  S S S S S S S E S S S S S E   S S S E S S S H
|-----------------------------|------------------|
|-----------------------------|------------------|
|-----------------------------|------------------|
|-0-0-0---0-0-0---0-0---0-0---|-8-8-8---8-8-8----|


  S S S S S S S E S S S S S E   S S S S S S S E S S S S S E
|-----------------------------|-----------------------------|
|-----------------------------|-----------------------------|
|-----------------------------|-----------------------------|
|-0-0-0---0-0-0---0-0---0-0---|-0-0-0---0-0-0---0-0---0-0---|


                               6/4
  S S S S S S S E S S S S S E   S S S E S S S W
|-----------------------------|--------------------|
|-----------------------------|--------------------|
|-----------------------------|--------------------|
|-0-0-0---0-0-0---0-0---0-0---|-8-8-8---8-8-8------|


 4/4
  S S S S S S S E S S S S S E   S S S S S S S E S S S S S E
|-----------------------------|-----------------------------|
|-----------------------------|-----------------------------|
|-----------------------------|-----------------------------|
|-0-0-0---0-0-0---0-0---0-0---|-0-0-0---0-0-0---0-0---0-0---|


  S S S S S S S E S S S S S E   S S S E S S S H
|-----------------------------|--------------------|
|-----------------------------|--------------------|
|-----------------------------|--------------------|
|-0-0-0---0-0-0---0-0---0-0---|-8-8-8---8-8-8------|


  S S S S S S S E S S S S S E   S S S S S S S E S S S S S E
|-----------------------------|-----------------------------|
|-----------------------------|-----------------------------|
|-----------------------------|-----------------------------|
|-0-0-0---0-0-0---0-0---0-0---|-0-0-0---0-0-0---0-0---0-0---|


                               6/4
  S S S S S S S E S S S S S E   S S S E S S S H..       E
|-----------------------------|------------------------------|
|-----------------------------|------------------------------|
|-----------------------------|------------------------------|
|-0-0-0---0-0-0---0-0---0-0---|-8-8-8---8-8-8-----------0----|


 4/4
  +E  H..         H..       E   +E  E Q  E E E E   +E  E Q  E E E E
|---------------|-------------|------------------|-------------------|
|---------------|-------------|------------------|-------------------|
|---------------|-------------|------------------|-------------------|
|-(0)-----------|-----------8-|-(8)-8-8--8-8-8-5-|-(5)-5-5--3-3-3-0--|


  +Q   Q  E E E +E    +Q   Q  E E E E   +E  E Q  E E E E   +E  E Q   E  E  E E
|-------------------|-----------------|------------------|---------------------|
|-------------------|-----------------|------------------|---------------------|
|-------------------|-----------------|------------------|---------------------|
|-(0)--0--0-0-0-(0)-|-(0)--0--0-0-0-8-|-(8)-8-8--8-8-8-5-|-(5)-5-5--10-10-10-0-|


  +Q   Q  E E E +E    +Q   Q  E E E E   +E  E Q  E E E E   +E  E Q  E E E E
|-------------------|-----------------|------------------|------------------|
|-------------------|-----------------|------------------|------------------|
|-------------------|-----------------|------------------|------------------|
|-(0)--0--0-0-0-(0)-|-(0)--0--0-0-0-8-|-(8)-8-8--8-8-8-5-|-(5)-5-5--3-3-3-0-|


  +Q   Q  E E E +E    +Q   Q  E E E E   +E  E Q  E E E E   +E  E Q  E E E E
|-------------------|-----------------|------------------|------------------|
|-------------------|-----------------|------------------|------------------|
|-------------------|-----------------|------------------|------------------|
|-(0)--0--0-0-0-(0)-|-(0)--0--0-0-0-8-|-(8)-8-8--8-8-8-5-|-(5)-5-5--x-x-x-0-|


  +Q   Q  E E E +E    +Q   Q  E E E E   +E  E Q  E E E E   +E  E Q  E E E E
|-------------------|-----------------|------------------|------------------|
|-------------------|-----------------|------------------|------------------|
|-------------------|-----------------|------------------|------------------|
|-(0)--0--0-0-0-(0)-|-(0)--0--0-0-0-8-|-(8)-8-8--8-8-8-5-|-(5)-5-5--3-3-3-0-|


  +Q   Q  E E E +E    +Q   Q  E E E E   +E  E Q  E E E E   +E  E Q  E Q  E
|-------------------|-----------------|------------------|-----------------|
|-------------------|-----------------|------------------|-----------------|
|-------------------|-----------------|------------------|-----------------|
|-(0)--0--0-0-0-(0)-|-(0)--0--0-0-0-8-|-(8)-8-8--8-8-8-5-|-(5)-5-5--5-3--0-|


  +Q   Q  E E E +E    +Q   Q  E E E E   +E  E Q  E E E E   +E  E Q  E E E E
|-------------------|-----------------|------------------|------------------|
|-------------------|-----------------|------------------|------------------|
|-------------------|-----------------|------------------|------------------|
|-(0)--0--0-0-0-(0)-|-(0)--0--0-0-0-8-|-(8)-8-8--8-8-8-5-|-(5)-5-5--3-3-3-0-|


  +Q   Q  E E E +E    +Q   Q  E E E E   +E  E Q  E E E E   +E  E Q  E Q.
|-------------------|-----------------|------------------|-----------------|
|-------------------|-----------------|------------------|-----------------|
|-------------------|-----------------|------------------|-----------------|
|-(0)--0--0-0-0-(0)-|-(0)--0--0-0-0-8-|-(8)-8-8--8-8-8-5-|-(5)-5-5--5-3----|


  +W           +W           S S S S S S S E S S S S S E
|------------|------------|-----------------------------|
|------------|------------|-----------------------------|
|------------|------------|-----------------------------|
|-(3)--------|-(3)--------|-0-0-0---0-0-0---0-0---0-0---|


  S S S S S S S E S S S S S E   S S S S S S S E S S S S S E   S S S E S S S H
|-----------------------------|-----------------------------|--------------------|
|-----------------------------|-----------------------------|--------------------|
|-----------------------------|-----------------------------|--------------------|
|-0-0-0---0-0-0---0-0---0-0---|-0-0-0---0-0-0---0-0---0-0---|-8-8-8---8-8-8------|


  S S S S S S S E S S S S S E   S S S S S S S E S S S S S E
|-----------------------------|-----------------------------|
|-----------------------------|-----------------------------|
|-----------------------------|-----------------------------|
|-0-0-0---0-0-0---0-0---0-0---|-0-0-0---0-0-0---0-0---0-0---|


                               6/4
  S S S S S S S E S S S S S E   S S S E S S S W
|-----------------------------|--------------------|
|-----------------------------|--------------------|
|-----------------------------|--------------------|
|-0-0-0---0-0-0---0-0---0-0---|-8-8-8---8-8-8------|


 4/4
  H    S S S S S S E   H    S S S S S S E   H    S S S S S S E    W
|--------------------|--------------------|---------------------|---|
|--------------------|--------------------|---------------------|---|
|--------------------|--------------------|---------------------|---|
|--------0-0---0-0---|--------0-0---0-0---|--------0-0---0-0----|---|


  S S S S S S S E  Q..       S S S S S S S E Q..
|--------------------------|--------------------------|
|--------------------------|--------------------------|
|--------------------------|--------------------------|
|-0-0-0---0-0-0------------|-0-0-0---0-0-0------------|


                            6/4
  S S S S S S S E  Q..       S S S E S S S W
|--------------------------|--------------------|
|--------------------------|--------------------|
|--------------------------|--------------------|
|-0-0-0---0-0-0------------|-8-8-8---8-8-8------|


 4/4
  S S S S S S S E S S S S S E   S S S S S S S E S S S S S E
|-----------------------------|-----------------------------|
|-----------------------------|-----------------------------|
|-----------------------------|-----------------------------|
|-0-0-0---0-0-0---0-0---0-0---|-0-0-0---0-0-0---0-0---0-0---|


  S S S S S S S E S S S S S E   S S S E S S S H
|-----------------------------|--------------------|
|-----------------------------|--------------------|
|-----------------------------|--------------------|
|-0-0-0---0-0-0---0-0---0-0---|-8-8-8---8-8-8------|


  S S S S S S S E S S S S S E   S S S S S S S E S S S S S E
|-----------------------------|-----------------------------|
|-----------------------------|-----------------------------|
|-----------------------------|-----------------------------|
|-0-0-0---0-0-0---0-0---0-0---|-0-0-0---0-0-0---0-0---0-0---|


                               6/4
  S S S S S S S E S S S S S E   S S S E S S S W
|-----------------------------|--------------------|
|-----------------------------|--------------------|
|-----------------------------|--------------------|
|-0-0-0---0-0-0---0-0---0-0---|-8-8-8---8-8-8------|


 4/4
  W          E H..
|----------|----------*|
|----------|----------*|
|----------|----------*|
|----------|-0--------*|



Duration Legend
---------------
W - whole; H - half; Q - quarter; E - 8th; S - 16th; T - 32nd; X - 64th; a - acciaccatura
+ - note tied to previous; . - note dotted; .. - note double dotted
Uncapitalized letters represent notes that are staccato (1/2 duration)
Irregular groupings are notated above the duration line
Duration letters will always appear directly above the note/fret number it represents the
duration for.  Duration letters with no fret number below them represent rests.  Multi-
bar rests are notated in the form Wxn, where n is the number of bars to rest for.  Low
melody durations appear below the staff

Tablature Legend
----------------
 h   - hammer-on
 p   - pull-off
 b   - bend
 pb  - pre-bend
 r   - bend release (if no number after the r, then release immediately)
 /\  - slide into or out of (from/to "nowhere")
 s   - legato slide
 S   - shift slide
 - natural harmonic
[n]  - artificial harmonic
n(n) - tapped harmonic
 ~   - vibrato
 tr  - trill
 T   - tap
 TP  - trem. picking
 PM  - palm muting
\n/  - tremolo bar dip; n = amount to dip
 \n  - tremolo bar down
 n/  - tremolo bar up
/n\  - tremolo bar inverted dip
 =   - hold bend; also acts as connecting device for hammers/pulls
 <> - volume swell (louder/softer)
 x   - on rhythm slash represents muted slash
 o   - on rhythm slash represents single note slash

Misc Legend
-----------
 |  - bar
||  - double bar
||o - repeat start
o|| - repeat end
*|  - double bar (ending)
 :  - bar (freetime)
 $  - Segno
 &  - Coda
Tempo markers -  = BPM(8/16=s8/s16), where s8 = swing 8ths, s16 = swing 16ths

Suggest correction
What's this?
You can suggest a correction to this tab. Community and Mods will review your correction and vote to approve or reject it.
comments
We did not receive enough feedback on this tab! Please rate:
print report bad tab
1 2 3 4 5
1 comment total.
0 reply
megadeth01 247 wrote on February 4 2009, 12:23 pm

I've just played this with my band and it seems rite, but wen I listen to the sing there r a few bends and fills, but I'm gona give it 5/5 cause this is rite all in all, good job x

guest
You may want to rate the tab now too:
select rating
Please do not post tabs as comments. Select "correction" instead!