Oops, an error
Loading. Please wait.

Pallbearer Tab

version 1
version 1

Solo

Whole song

1,000 views 1 this week
no commentswrite comment
1 2 3 4 5
please rate
add to favorites
launch autoscroll
font size
0
reset
how to read this tab
guitar tuner
Autoscroll
slow
fast
+/-
esc
set tempo
stop
Help us to improve Ultimate-Guitar.com Take our survey!
×
Tuning
C G C F A D
ok, this is the solo for Pallbearer, i think its pretty right, its got another guitar in 
back round some times, but this is the lead guitar solo. So you know the deal, let me 
if theres a mistake and correct me on it, and that would be great :) enjoy...

song:Pallbearer (solo)
band:Destroy the Runner
album:Saints
tuning:drop c (cgcfad)


im starting with the little riff that leads into the solo...
(3:11)
d|--------------------------------------------------------------|
a|-------------------13---15b16r15------------------------------|
f|---14b15r14---12-------------------12---15-14-12----------12--|
c|-------------------------------------------------12-14-15-----|x2
g|--------------------------------------------------------------|
c|--------------------------------------------------------------|

(3:21)
d|-----------------------------------------|
a|-----------------------------------------|
f|--15-14-12-14--14-12-10-12--12p10-9h10---|
c|-----------------------------------------|
g|-----------------------------------------|
c|-----------------------------------------|

d|------------------------------------------------------------|
a|------------------------------------------------------------|
f|-----9-10-12---12p10----------------------------------------|
c|--12-----------------12~(do a slide downish thing,----------|
g|--------------------------and go right into the next part)--|
c|------------------------------------------------------------|

d|-----------------------------------12-13-15--|
a|-----------------------------13-15-----------|
f|--------------------12-14-15-----------------|
c|-----------12-14-15--------------------------|
g|-/12-13-15-----------------------------------|
c|---------------------------------------------|

d|--17b18r17-15-13-15------------|
a|--------------------13-15------|
f|--------------------------14~--|
c|-------------------------------|
g|-------------------------------|
c|-------------------------------|

d|-------------------------------------|
a|-----------13~-----------------------|
f|------------------------15~-14-12~---|
c|--15-14-12-----12-14-15--------------|(
                                        
comments
We did not receive enough feedback on this tab! Please rate:
print report bad tab
1 2 3 4 5
I want to post or [tab]
guest
You may want to rate the tab now too:
select rating
Please do not post tabs as comments. Select "correction" instead!