Oops, an error
Loading. Please wait.

Saints Bass Tab

version 1
version 1

Whole song

Interactive

827 views 1 this week
no commentswrite comment
1 2 3 4 5
please rate
add to favorites
launch autoscroll
font size
0
reset
guitar tuner
Tab Pro tools
  • play this tab
  • loop segment
  • change instrument
  • show fretboard
  • metronome
×
Best way to learn
"Saints"
Autoscroll
slow
fast
+/-
esc
set tempo
stop
Contributor
Tuning
C G C F A D
#----------------------------------PLEASE NOTE---------------------------------#
#This file is the author's own work and represents their interpretation of the #
#song. You may only use this file for private study, scholarship, or research. #
#------------------------------------------------------------------------------#

SAINTS (Bassline)
As recorded by Destroy The Runner
(From the 2006 Album SAINTS)

Transcribed by Chris Allan
	

Words and Music by Destroy The Runner
Arranged by Destroy The Runner

Gtr I (C G C F) - 'Untitled'
Gtr II (C G C F) - 'Untitled'

 Intro
  Q=180
 4/4
  Gtr I
  Wx10
|---------||
|---------||
|---------||
|---------||


   Verse 1
    D
    E E E Q  E E E   E E E Q  E E E   E E E Q  E E E   E E E Q  E E E
||-----------------|----------------|----------------|-----------------|
||o----------------|----------------|----------------|-----------------|
||o----------------|----------------|----------------|-----------------|
||--0-0-0-0--0-0-0-|-0-0-0-0--0-0-0-|-0-0-0-0--0-0-0-|-0-0-0-0--0-0-0--|


  Bb
  E E E Q  E E E   E E E Q  E E E
|----------------|----------------|
|----------------|----------------|
|----------------|----------------|
|-8-8-8-8--8-8-8-|-8-8-8-8--8-8-8-|


                  1.,2.,3.           4.
  G
  E E E Q  E E E   E E E Q  E E E  4x E E H.
|----------------|-----------------||-----------||
|----------------|----------------o||-----------||
|----------------|----------------o||-----------||
|-5-5-5-5--5-5-5-|-5-5-5-5--5-5-5--||-5---------||


   Chorus
    $                                                              To Coda
    D                                   Bb                G
    E E E E E E E E   E E E E E E E E   E E E E E E E E   E E E E E E E E   4x
||------------------|-----------------|-----------------|-------------------||
||o-----------------|-----------------|-----------------|------------------o||
||o-----------------|-----------------|-----------------|------------------o||
||--0-0-0-0-0-0-0-0-|-0-0-0-0-0-0-0-0-|-8-8-8-8-8-8-8-8-|-5-5-5-5-5-5-5-5---||


   Verse 2
    D
    E E E E E E E E   E E E E E E E E   E E E E E E E E   E E E E E E E E
||------------------|-----------------|-----------------|------------------|
||o-----------------|-----------------|-----------------|------------------|
||o-----------------|-----------------|-----------------|------------------|
||--0-0-0-0-0-0-0-0-|-0-0-0-0-0-0-0-0-|-0-0-0-0-0-0-0-0-|-0-0-0-0-0-0-0-0--|


  Bb                                  G
  E E E E E E E E   E E E E E E E E   E E E E E E E E   E E E E E E E E
|-----------------|-----------------|-----------------|------------------||
|-----------------|-----------------|-----------------|-----------------o||
|-----------------|-----------------|-----------------|-----------------o||
|-8-8-8-8-8-8-8-8-|-8-8-8-8-8-8-8-8-|-5-5-5-5-5-5-5-5-|-5-5-5-5-5-5-5-5--||


  D
  S S E E E E E E E   S S E E E E E E E
|-------------------|-------------------|
|-------------------|-------------------|
|-------------------|-------------------|
|-0-0-0-0-0-0-0-0-0-|-0-0-0-0-0-0-0-0-0-|


  S S E E E E E E E   S S E E E E E E E
|-------------------|-------------------|
|-------------------|-------------------|
|-------------------|-------------------|
|-0-0-0-0-0-0-0-0-0-|-0-0-0-0-0-0-0-0-0-|


                                                    D.S. al Coda
  Bb                                      G
  S S E E E E E E E   S S E E E E E E E   S S E E E E E E E   W
|-------------------|-------------------|-------------------|-------||
|-------------------|-------------------|-------------------|-------||
|-------------------|-------------------|-------------------|-------||
|-8-8-8-8-8-8-8-8-8-|-8-8-8-8-8-8-8-8-8-|-5-5-5-5-5-5-5-5-5-|-------||


 Bridge
  &
  D
  W          +W           +W           +W
|----------|------------|------------|--------|
|----------|------------|------------|--------|
|----------|------------|------------|--------|
|-0--------|-(0)--------|-(0)--------|-(0)----|


                 D
  Wx4            W          +W           +W           +W
|------------||-----------|------------|------------|--------|
|------------||o----------|------------|------------|--------|
|------------||o----------|------------|------------|--------|
|------------||--0--------|-(0)--------|-(0)--------|-(0)----|


  Bb                      G
  W          +W           W          +W      3x
|----------|------------|----------|---------||
|----------|------------|----------|--------o||
|----------|------------|----------|--------o||
|-8--------|-(8)--------|-5--------|-(5)-----||


  D
  W          +W             +W           +W      3x
|----------|------------||-------------|---------||
|----------|------------||o------------|--------o||
|----------|------------||o------------|--------o||
|-0--------|-(0)--------||--(0)--------|-(0)-----||


   Out Chorus
    D                                   Bb                G
    E E E E E E E E   E E E E E E E E   E E E E E E E E   E E E E E E E E   4x
||------------------|-----------------|-----------------|-------------------||
||o-----------------|-----------------|-----------------|------------------o||
||o-----------------|-----------------|-----------------|------------------o||
||--0-0-0-0-0-0-0-0-|-0-0-0-0-0-0-0-0-|-8-8-8-8-8-8-8-8-|-5-5-5-5-5-5-5-5---||


                                      1.,2.,3.
    D   G   D              G           Bb           G          D
    Gtrs I, II
    E E E E Q.   E   +E  E E E H       E E E E Q.   E   E E Q  E E E E   4x
||-----------------|-----------------|----------------|------------------||
||o-----5----------|-------5---------|----------------|-----------------o||
||o---5-----5\-----|-----5-----5\----|----------------|------------5-5--o||
||--0------------0-|-(0)-------------|-8-8-8---8----5-|---5-5--0-0-------||


  4.
  Bb         G          D
  W          W          W          +W           +W
|----------|----------|----------|------------|--------*|
|----------|----------|----------|------------|--------*|
|----------|----------|----------|------------|--------*|
|-8--------|-5--------|-0--------|-(0)--------|-(0)----*|



Duration Legend
---------------
W - whole; H - half; Q - quarter; E - 8th; S - 16th; T - 32nd; X - 64th; a - acciaccatura
+ - note tied to previous; . - note dotted; .. - note double dotted
Uncapitalized letters represent notes that are staccato (1/2 duration)
Irregular groupings are notated above the duration line
Duration letters will always appear directly above the note/fret number it represents the
duration for.  Duration letters with no fret number below them represent rests.  Multi-
bar rests are notated in the form Wxn, where n is the number of bars to rest for.  Low
melody durations appear below the staff

Tablature Legend
----------------
 h   - hammer-on
 p   - pull-off
 b   - bend
 pb  - pre-bend
 r   - bend release (if no number after the r, then release immediately)
 /\  - slide into or out of (from/to "nowhere")
 s   - legato slide
 S   - shift slide
 - natural harmonic
[n]  - artificial harmonic
n(n) - tapped harmonic
 ~   - vibrato
 tr  - trill
 T   - tap
 TP  - trem. picking
 PM  - palm muting
\n/  - tremolo bar dip; n = amount to dip
 \n  - tremolo bar down
 n/  - tremolo bar up
/n\  - tremolo bar inverted dip
 =   - hold bend; also acts as connecting device for hammers/pulls
 <> - volume swell (louder/softer)
 x   - on rhythm slash represents muted slash
 o   - on rhythm slash represents single note slash

Misc Legend
-----------
 |  - bar
||  - double bar
||o - repeat start
o|| - repeat end
*|  - double bar (ending)
 :  - bar (freetime)
 $  - Segno
 &  - Coda
Tempo markers -  = BPM(8/16=s8/s16), where s8 = swing 8ths, s16 = swing 16ths

comments
We did not receive enough feedback on this tab! Please rate:
print report bad tab
1 2 3 4 5
I want to post or [tab]
guest
You may want to rate the tab now too:
select rating
Please do not post tabs as comments. Select "correction" instead!