Oops, an error
Loading. Please wait.

Foam Hands tab

3,549 views 9 this week
5 commentsread comments
1 2 3 4 5
x 3
add to favorites
×
Save as Personal and add changes to this tab that will be seen only by you. Learn more ›
×
You can save this tab as Personal to edit and correct it or add notes. All changes will be seen only by you. Learn more »
launch autoscroll
font size
0
reset
how to read this tab
guitar tuner
edit
Autoscroll
slow
fast
+/-
esc
set tempo
stop
Author
Difficulty
I was playing through with the other version and found it to be very inaccurate, so I 
my own.  I know it says chords but I threw the riff in there as well.  Enjoy!

Riff:


e----------------------------------------------------------------------|
G---------------------------12---------12--14--14--12------------------|
B-------------------11--13------11h13------------------13--11----------|
D--11-14--13h14p13---------------------------------------------14--9h11|
A----------------------------------------------------------------------|
E----------------------------------------------------------------------|

E                    G#m
True love regrets to inform you
C#m                             A
There are certain things you must do
E               G#m          C#m           A
To perceive his face in the stains on the wall


   A                              B
I didn't know what time it was at all
   E                              A
I didn't know what time it was at all
A(+riff)       B       E       A
Foam hands

E               G#m
Since you been gone
C#m            A
Since you been gone
E                    G#m                      C#m
Me and the king have been steadily growing apart
                  A
He lives down the hall

A                                 B
I didn't know what time it was at all
E                                 A
I didn't know what time it was at all
A(+riff)       B       E       A
Foam hands

E           G#m     B                A
I'm not the kind to tell you what is true
            E       G#m        B    A
And what is totally out of control

A                                 B
I didn't know what time it was at all
E                                 A
I didn't know what time it was at all
A(+riff)       B       E         A
Foam hands

Repeat ad nauseum until the end with soloing, strings, whistling and other such follies 
top.

            
            
Suggest correction
Creating personal tab
Creating personal tab
You can edit any tab online and save it as your Personal.

You can edit, replace or remove any tab part or add personal notes – all changes will be seen only by you.

Personal tabs can be accessed anytime from any device, even offline.
Learn more »
Give kudos to tab author, rate the tab!
1 2 3 4 5
comments
print report bad tab
5 comments total. Showing first comments.
0 reply
facebandit 114 Feb 22, 2008 09:07 AM

the riff that you put up is one string too low. Move everything up one string. It should look like:

e----------------------------------------------------------------------|
G---------------------------12---------12--14--14--12------------------|
B-------------------11--13------11h13------------------13--11----------|
D--11-14--13h14p13---------------------------------------------14--9h11|
A----------------------------------------------------------------------|
E----------------------------------------------------------------------|

0 reply
facebandit 114 Feb 22, 2008 09:14 AM

G# should be G#m throughout the whole song.
And this part should be:
E G#m C#m A
I'm not the kind to tell you what is true
E G#m C#m A
And what is totally out of control

0 reply
facebandit 114 Feb 22, 2008 09:15 AM

Its not aligned but the B should be a C#m

guest
You may want to rate the tab now too:
select rating
Wanna post a correction for this tab? Suggest correction