Oops, an error
Loading. Please wait.

Mad Butcher Live tab

version 2
version 2

Whole song

Interactive

843 views 1 this week
no commentswrite comment
1 2 3 4 5
3 more votes to show rating
add to favorites
×
Save as Personal and add changes to this tab that will be seen only by you. Learn more ›
×
You can save this tab as Personal to edit and correct it or add notes. All changes will be seen only by you. Learn more »
launch autoscroll
font size
0
reset
how to read this tab
guitar tuner
edit
Autoscroll
slow
fast
+/-
esc
set tempo
stop
           D E S T R U C T I O N - M A D  B U T C H E R [L i v e]
                      From the Album LIVE WITHOUT SENSE
                    Copyright 1989 STEAMHAMMER/SPV RECORDS
       
                            Live Version - FEB 02

Original Tab by: Jori Merilainen
Live Version by: death8699

Send any corrections, suggestions or questions to 
 Jori: at Thrasher_0682@yahoo.com
 death8699: at ArchEnemies@aol.com

Check Out Death8699.com, With More Transcriptions On It:
 http://www.death8699.com


Email  for any questions

.  - palm mute                  /  - slide up to
\  - slide down to              ~  - vibrato
"  - tremelo picking           ( ) - ghost note
b  - bend                       h  - hammer-on
fb - full bend (1 step)         p  - pull-off
hb - half bend (1/2 step)       r  - release a bend
t  - tapping                    ah - artificial harmonic

Tune Gtr to E (E,A,D,G,B,E)

--M A D  B U T C H E R [L i v e]--

[Riff 1]                                          [End Riff 1]
[-----------------------------------1--0__1__0---------------]
[----------------------------------------h-p----1--3__1------]
[*---------------------------------------------------p---3--*][Gtrs.1&2]
[*-------------------------3--2--0--------------------------*]
[-----------------3--2--0------------------------------------]
[--0--0--3--2--0---------------------------------------------]
   .  .  .  .  .  .  .  .  .  .  . 


Riff 1 [3tx]


[Riff 2]                                   [End Riff 2]
[------------------------------------------------------------]
[------------------------------------------------------------]
[*----------------------------------------------------------*][Gtrs.1&2]
[*-------------6__5__6----------6__5__6------------5--8--8--*]
[--0--000000-----p-h----000000----p-h----00000000--3--6--6---]
[------------------------------------------------------------]
   .  ......            ......           ........


Riff 2 [7tx]


[Riff 3]
[------------------------------------------------------------------]
[------------------------------------------------------------------]
[*----------------------------------------------------------------*][Gtrs.1&2]
[*-------------------------------5---------4---------10--------9--*]
[------------5---------4---------3---------2---------8---------7---]
[--0--000000-3--000000-2--000000----000000----000000----000000-----]
   .  ......    ......    ......    ......    ......    ......

                              [End Riff 3]
[----------------------------------------]
[----------------------------------------]
[*--------------------------------------*][Gtrs.1&2]
[*---------9--12----12--9--10----10-----*]
[----------7--10----10--7--8-----8-------]
[--000000--------------------------------]
   ......


Riff 3 [2tx]


[Fill 1]
[-------------------------------------3__0__3__0---------------]
[---------------------------------------p-h--p----3__0__3__0---]
[*--------------------------------------------------p--h--p---*][Gtrs.1&2]
[*-7--9----9----5--7----7--5-4--------------------------------*]
[--5--7----7----3--5----5--3-2---------------------------------]
[--------------------------------------------------------------]

                 [End Fill 1]
[---------------------------]
[---------------------------]
[*-2__0_2__0---------------*][Gtrs.1&2]
[*---p-h--p---2__0__2__0---*]
[---------------p--h--p-----]
[---------------------------]


Riff 1 [4tx]
Riff 2 [8tx]
Riff 3 [1tx]
Fill 1 [1tx]
Riff 1 [4tx]


[Riff 4] 
[---------------------------------------------------------------]
[---------------------------------------------------------------]
[*-------------------------------------------------------------*][Gtrs.1&2]
[*-------------9--------7--------9-----10----10----------------*]
[--------------7--------5--------7-----8-----8------------------]
[--0--0--0--0-----0--0-----0--0-----0--------------0--0--0--0---]
   .  .  .  .     .  .     .  .     .              .  .  .  .

                                  [End Riff 4]
[--------------------------------------------]
[--------------------------------------------]
[*------------------------------------------*][Gtrs.1&2]
[*------------10-\-9-----7-/-9-----12-\-10--*]
[--10-\-9-----8--\-7-----5-/-7-----10-\-8----]
[--8--\-7--0-----sl--0-----sl--0------sl-----]
      sl   .         .         .


Riff 4 [7tx]
Riff 2 [4tx]
Riff 3 [2tx]
Riff 2 [4tx]
Riff 3 [2tx]


[Riff 5]*
[-------------------------------------------------------------------]
[-------------------------------------------------------------------]
[*-----------------------------------------------------------------*][Gtrs.1&2]
[*-----------------------------------------------------------------*]
[-----------------------4--------------------5----------------------]
[--0--000--000--000--00-2--222--222--222--22-3--333--333--333--33---]
   .  ...  ...  ...  ..    ...  ...  ...  ..    ...  ...  ...  ..

                [End Riff 5]
[--------------------------]
[--------------------------]
[*------------------------*][Gtrs.1&2]
[*-5------4-----2---------*]
[--3--33--2--22-0--00--5---]
[----------------------3---]
      ..     ..    ..

 ___________________________________________________________________
[* = bass plays this riff actually, on the live version guitars play]
[harmonized riff.                                                   ]   
[___________________________________________________________________]


[Riff 5.a]*
[-------------------------------------------------------------------]
[-------------------------------------------------------------------]
[*-----------------------------------------------------------------*][Gtrs.1&2]
[*-----------------------------------------------------------------*]
[-------------------------------------------------------------------]
[--0--000--000--000--00-2--222--222--222--22-3--333--333--333--33---]
   .  ...  ...  ...  .. .  ...  ...  ...  .. .  ...  ...  ...  ..

              [End Riff 5.a]
[--------------------------]
[--------------------------]
[*------------------------*][Gtrs.1&2]
[*------------------------*]
[--3--33--2--22-0--00------]
[----------------------3---]
   .  ..  .  .. .  ..  .


 ___________________________________________________________________
[* = bass plays this riff actually, on the live version guitars play]
[harmonized riff.                                                   ]   
[___________________________________________________________________]


[Riff 6]
[-------------------------------------------------------------------]
[--8"--7"--5"--0"--5"--7"--8"--7"--5"--0"--5"--7"--8"--7"--5"--0"---]
[*-----------------------------------------------------------------*][Gtr.1]
[*-----------------------------------------------------------------*]
[-------------------------------------------------------------------]
[-------------------------------------------------------------------]


[15"--14"--12"--0"--12"--14"--15"--14"--12"--0"--12"--14"--15"--14"--12"]
[-----------------------------------------------------------------------]
[*---------------------------------------------------------------------*][Gtr.2]
[*---------------------------------------------------------------------*]
[-----------------------------------------------------------------------]
[-----------------------------------------------------------------------]

                                                         
[-------------------------------------------------------------------]
[/10"--0"--8"--7"--0"--7"--8"--10"--8"--7"--0"--7"--8"--10"--8"--7"-]
[*-----------------------------------------------------------------*][Gtr.1]
[*-----------------------------------------------------------------*]
[-------------------------------------------------------------------]
[-------------------------------------------------------------------]

                                                           
[/17"--15"--14"--0"--14"--15"--17"--15"--14"--0"--14"--15"--17"--15"-14"]
[-----------------------------------------------------------------------]
[*---------------------------------------------------------------------*][Gtr.2]
[*---------------------------------------------------------------------*]
[-----------------------------------------------------------------------]
[-----------------------------------------------------------------------]



[-------------------------------------------------------------------]
[/12"--10"--8"--0"--8"--10"--12"--10"--8"--0"--8"--10"--12"--10"--8"]
[*-----------------------------------------------------------------*][Gtr.1]
[*-----------------------------------------------------------------*]
[-------------------------------------------------------------------]
[-------------------------------------------------------------------]


[/19"--17"--15"--0"--15"--17"--19"--17"--15"--0"--15"--17"--19"-17"-15"-]
[-----------------------------------------------------------------------]
[*---------------------------------------------------------------------*][Gtr.2]
[*---------------------------------------------------------------------*]
[-----------------------------------------------------------------------]
[-----------------------------------------------------------------------]


[--------------------------------------]
[-/13"-12"-10"-12"-10"-8"-10"-8"-7"-0"-]
[*------------------------------------*][Gtr.1]
[*------------------------------------*]
[--------------------------------------]
[--------------------------------------]

                               [End Riff 6]   
[/20"-19"-17"-19"-17"-15"-17"-15"-14"-0"--]
[-----------------------------------------]
[*---------------------------------------*][Gtr.2]
[*---------------------------------------*]
[-----------------------------------------]
[-----------------------------------------]


[Riff 7]
[---------------------------------------------------------]
[---------------------------------------------------------]
[*----------11-12-11~~11-12-14-12~~12-14-16-17_16_17_16--*][Gtr.1]
[*/1414~14-----------------------------------------------*]
[---------------------------------------------------------]
[---------------------------------------------------------]


[-----------14-15-14~~14-15-17-15~~15-17-19-20_19_20_19---]
[-/1717~17------------------------------------------------]
[*-------------------------------------------------------*][Gtr.2]
[*-------------------------------------------------------*]
[---------------------------------------------------------]
[---------------------------------------------------------]

  
[-------------------------]
[-------------------------]
[*----16_17_16_17_16-----*][Gtr.1]
[*-17----------------17--*]
[-------------------------]
[-------------------------]

               [End Riff 7]
[--19_20_19_20_19---------]
[------------------20-----]
[*-----------------------*][Gtr.2]
[*-----------------------*]
[-------------------------]
[-------------------------]


Riff 7 [1tx]


[Riff 7.a] 
[-----------------------------------------------------------]
[-----------------------------------------------------------]
[*------11"12"11"--12"14"12"--14"16"17_16_17_16---16_17_16_*][Gtr.1]
[*-14"--------------------------------p--h--p--17---h--p---*]
[-----------------------------------------------------------]
[-----------------------------------------------------------]


[-------14"15"14"--15"17"15"--17"19"20_19_20_19---19_20_19_]
[--17"--------------------------------p--h--p--20---h--p--_]
[*--------------------------------------------------------*][Gtr.2]
[*--------------------------------------------------------*]
[----------------------------------------------------------]
[----------------------------------------------------------]

   
[---------------]
[---------------]
[*_17_16-------*][Gtr.1]
[*---p---17----*]
[---------------]
[---------------]

   [End Riff 7.a]
[__20_19--------]
[----p---20-----]
[*-------------*][Gtr.2]
[*-------------*]
[---------------]
[---------------]


Riff 7.a [3tx]
Riff 3   [3tx]
Fill 1 


[Riff 1.a]                                           [End Riff 1.a]
[-----------------------------------------------------------------]
[-----------------------------------------------------------------]
[*---------------------------------------------------------------*][Gtrs.1&2]
[*-------------------------3--2--0--5--3--2----------------------*]
[-----------------3--2--0--------------------5--3--2-----------2--]
[--0--0--3--2--0--------------------------------------5--3--22-0--]
   .  .  .  .  .  .  .  .  .  .  .  .  .  .  .  .  .  .  .  .. *


[* = Staccato] 


Riff 1. [1tx]                 


[Outro]


Check Out Death8699.com, With More Transcriptions On It:
 http://www.death8699.co

            
            
Suggest correction
Creating personal tab
Creating personal tab
You can edit any tab online and save it as your Personal.

You can edit, replace or remove any tab part or add personal notes – all changes will be seen only by you.

Personal tabs can be accessed anytime from any device, even offline.
Learn more »
Give kudos to tab author, rate the tab!
1 2 3 4 5
comments
print report bad tab
guest
Wanna post a correction for this tab? Suggest correction