Oops, an error
Loading. Please wait.

Bleeding Tab

258 views 1 this week
no commentswrite comment
1 2 3 4 5
please rate
add to favorites
launch autoscroll
font size
0
reset
how to read this tab
guitar tuner
Autoscroll
slow
fast
+/-
esc
set tempo
stop
Help us to improve Ultimate-Guitar.com Take our survey!
×
This file was created using TabExpert 2 by Ugo Gasparri
                            16/11/97 - 10.32.21
If you want to receive TabXpert 2 send e-mail at :
ugo_er_mejo@geocities.com

Bleeding By Desultory(track Number 5)
>From the album Bitterness
Dated 1994

Transcribed by Ugo Gasparri
ugo_er_mejo@geocities.com


RIFF A 
   GTR I
E-|------------------------------------------------------------
B-|------------------------------------------------------------
G-|------------------------------------------------------------
D-|---3/5---5---5------------5\3---3---3-----------------------
A-|---3/5---5---5------------5\3---3---3-----------------------
E-|---1/3-0-3-0-3------------3\1-0-1-0-1-----------------------
*         .   .		       .   .
*
*
   GTR II w/Wha
E-|------------------------------------------------------------
B-|------------------------------------------------------------
G-|-3h5-5-5-5-5-3h5-5-5-6-5--1h3-3-3-3-3~----------------------
D-|------------------------------------------------------------
A-|------------------------------------------------------------
E-|------------------------------------------------------------
* find the correct timing
* between gtr i & II
*
   RIFF A again
E-|------------------------------------------------------------
B-|------------------------------------------------------------
G-|------------------------------------------------------------
D-|---3/5---5---5------------5\3---3---3-----------------------
A-|---3/5---5---5------------5\3---3---3-----------------------
E-|---1/3-0-3-0-3------------3\1-0-1-0-1-----------------------
*         .   .		       .   .
* This under the vocals
*
		    A.H.
E-|------------------------------------------------------------
B-|------------------------------------------------------------
G-|--/5-3-5---------------/5-3-5-------------------------------
D-|---------6--5h6p5~------------6--/8-6-5---------------------
A-|------------------------------------------------------------
E-|------------------------------------------------------------
* Nothing to say on this
* This is the Chorus
*
   RIFF B
E-|------------------------------------------------------------
B-|------------------------------------------------------------
G-|------------------------------------------------------------
D-|----3----3----5---------3---3---2---------------------------
A-|----3----3----5---------3---3---2---------------------------
E-|--0-1--0-1--0-3-------0-1-0-1-0-0---------------------------
*
*
*						
				  |1.------- |2.----A.H.--
E-|-----------------------------------------|------------------
B-|-----------------------------------------|------------------
G-|-----------------------------------------|------------------
D-|-------------5--4---------------5--4--5--|-5--4--5~----------
A-|-------------5--4---------------5--4--5--|-5--4--------------
E-|-0-0-0-0-0-0-3--2--0-0-0-0-0-0--3--2--3--|-3--2----------------
*
*
*

E-|------------------------------------------------------------
B-|------------------------------------------------------------
G-|------------------------------------------------------------
D-|------------------------------------------------------------
A-|------------------------------------------------------------
E-|------------------------------------------------------------
*
*
*


I hope this is enough.
The song structure is very simple so I don't write it.

For any comments,corrections,suggestions or WHAT FUCKING EVER
(also simply mail exchange) mail me at:
ugo_er_mejogeocities.com
Suggest correction
Give kudos to tab author, rate the tab!
1 2 3 4 5
comments
print report bad tab
guest
You may want to rate the tab now too:
select rating
Please do not post tabs as comments. Select "correction" instead!