Oops, an error
Loading. Please wait.

Cold Bitterness Tab

132 views 1 this week
no commentswrite comment
1 2 3 4 5
please rate
add to favorites
launch autoscroll
font size
0
reset
how to read this tab
guitar tuner
Autoscroll
slow
fast
+/-
esc
set tempo
stop
Help us to improve Ultimate-Guitar.com Take our survey!
×
This file was created using TabExpert 2 by Ugo Gasparri
                            17/10/97 - 01.06.49
If you want the FREEWARE trial version of TabXpert 2 send e-mail at :
              ugo_er_mejo@geocities.com
Cold Bitterness By Desultory
>From the album Bitterness
Dated 1994

Transcribed by Ugo Gasparri
ugo_er_mejo@geocities.com

Hello!
I'm back again with another tab from Desultory's Bitterness.It's a great song,
not easy to play because of the timing but great when played in a band.
The song is,as all Desultory's,tuned in Db,but it's transcribed in E.

INTRO

E-|------------------------------------------------------------
B-|------------------------------------------------------------
G-|------4-----2-----------------------------------------------
D-|--2-4-4-5-4-0-5-4-------------------------------------------
A-|--2-4-2-5-4-0-3-2-------------------------------------------
E-|--0-2---3-2---3-2-------------------------------------------
* This is the intro.
* It's fast and STRONG
* Bass plays the tonic note.

   RIFF A
E-|------------------------------------------------------------
B-|------------------------------------------------------------
G-|------------------------------------------------------------
D-|------------------------------------------------------------
A-|-------------2-2-2-------------0-0-0------------------------
E-|-0-0-0-1-1-1-------3-3-3-2-2-2-------3-3-3-2-2-2------------
* The main riff.It's really
* fast,notes are just tremolo-picked

   RIFF B
E-|------------------------------------------------------------
B-|------------------------------------------------------------
G-|-------4----------------------------------------------------
D-|--2----4----5----7------------------------------------------
A-|--2----2----5----7------------------------------------------
E-|--0---------3----5------------------------------------------
*
*
*
   RIFF C
E-|------------------------------------------------------------
B-|------------------------------------------------------------
G-|-------------------4-5--------------------------------------
D-|-2----4-5-4-5-7----4-5-7-5----------------------------------
A-|-2----4-5-4-5-7----2-3-7-5----------------------------------
E-|-0----2-3-2-3-5--------5-3----------------------------------
*
*
*
   RIFF D
E-|------------------------------------------------------------
B-|------------------------------------------------------------
G-|----------------5-------------------------------------------
D-|--2----5--7--5--5-------------------------------------------
A-|--2----5--7--5--3-------------------------------------------
E-|--0----3--5--3----------------------------------------------
*
*
*
   RIFF E
                                   x2 
 E-|---------------------------------|--------------------------
 B-|---------------------------------|--------------------------
 G-|---------------------------------|--------------------------
 D-|---------------------------------|--------------------------
 A-|------3-----1---------3-----1----|--------------------------
 E-|--1-3---4-3---4-3-1-3---4-3---4--|--------------------------

                                   x2
 E-|---------------------------------|--------------------------
 B-|---------------------------------|--------------------------
 G-|---------------------------------|--------------------------
 D-|---------------------------------|--------------------------
 A-|---8-9-8-6-8-------8-9-8-6-8-----|--------------------------
 E-|-6-----------9-8-6-----------9---|--------------------------
 * Nothing to say on this
 

E-|------------------------------------------------------------
B-|------------------------------------------------------------
G-|------------------------------------------------------------
D-|------------------------------------------------------------
A-|------------------------------------------------------------
E-|------------------------------------------------------------
*
*
*

E-|------------------------------------------------------------
B-|------------------------------------------------------------
G-|------------------------------------------------------------
D-|------------------------------------------------------------
A-|------------------------------------------------------------
E-|------------------------------------------------------------
*
*
*

E-|------------------------------------------------------------
B-|------------------------------------------------------------
G-|------------------------------------------------------------
D-|------------------------------------------------------------
A-|------------------------------------------------------------
E-|------------------------------------------------------------
*
*
*

INTRO
RIFF A x4
RIFF B x2
RIFF A x4
RIFF B x2
RIFF A x4
RIFF C x6
RIFF A x4
RIFF B x2
RIFF D x4
RIFF E x1
RIFF D x2
RIFF B x2
I hope this is enough.
Any questions,comments,suggestions or WHAT FUCKING EVER to:
ugo_er_mejo@geocities.com
Suggest correction new What's this?
You can suggest a correction to this tab. Community and Mods will review your correction and vote to approve or reject it.
comments
We did not receive enough feedback on this tab! Please rate:
print report bad tab
1 2 3 4 5
guest
You may want to rate the tab now too:
select rating
Please do not post tabs as comments. Select "correction" instead!