Oops, an error
Loading. Please wait.

Enslaved Tab

296 views 1 this week
no commentswrite comment
1 2 3 4 5
3 more votes to show rating
add to favorites
launch autoscroll
font size
0
reset
how to read this tab
guitar tuner
Autoscroll
slow
fast
+/-
esc
set tempo
stop
Help us to improve Ultimate-Guitar.com Take our survey!
×
                            
                            Desultory - Enslaved 
                    
                   From Desultory's second album "Bitterness"
       
       **************************************************************
               Transcription by  Ugo Gasparri - Rome, Italy
       
       Please if you have the tabs of any of the following songs
         (or  of others of the same style)e-mail them to me at 
                            gasp_ste@iol.it : 
                            ---------------
       Band                     Song                   Album
     
     - Amorphis                 Into Hiding            Tales from...
     - Amorphis                 The Castaway           Tales from...
     - Amorphis                 Black winter day       Tales From...
     
     - Cradle of filth          The principle of evil made flesh
     - Cradle of filth          A dream of wolves in the snow
     
     - Entombed                 Out of hand            Wolverine blues
     - Entombed                 Eyemaster              Wolverine blues
     *****************************************************************

RIFF A

E---|-----------------------------------------------------------------------
B---|-----------------------------------------------------------------------
G---|-----------------------------------------------------------------------
D---|-2--------------2--------3-2------2--------------0-2-------------------
A---|-0------3-(3)---2------3-----0-2--2------3-3-2-3---2---3-3-2-----------
E---|-0-00-1---------0-00-1------------0-00-1-----------0-1-------3-2-------

* This is the opening riff 
* The last two notes(G and F#) are peraphs 
* on powerchords.Everyway, I use them in this
* way, i think it is better


RIFF B

E---|------------------------------------|----------------------------------
B---|------------------------------------|----------------------------------
G---|------------------------------------|----------------------------------
D---|-2--------3-2------2--------------0-|----------------------------------
A---|-2------3-/-/-0-2--2------3-3-2-3---|----------------------------------
E---|-0-00-1-/-/-/-/-/--0-00-1-----------|----------------------------------
             /     / /

* Here is the riff under the vocals
* I don't know if it's fully correct
* but anyway it is very similiar.

RIFF C

E---|-----------------------------------------------------------------------
B---|-----------------------------------------------------------------------
G---|-----------------------------------------------------------------------
D---|--3-2-----3-2-----3-2-----3-2------------------------------------------
A---|------3/5-----3-------3/5----------------------------------------------
E---|-----------------------------------------------------------------------

E---|-----------------------------------------------------------------------
B---|-----------------------------------------------------------------------
G---|-------7------5--------7---9-------------------------------------------
D---|-------7------5--------7---9-------------------------------------------
A---|-------5------3--------5---7-------------------------------------------
E---|-----------------------------------------------------------------------

* I'm not shure of the rithmic guitar
* I did'nt catch the right riff so I
* just found the right chords

RIFF D

E---|-----------------------------------------------------------------------
B---|-----------------------------------------------------------------------
G---|-----------------------------------------------------------------------
D---|--2-2-4-5-4-2-4-5---4-5-4---7-5-7--------------------------------------
A---|------------------3-------5--------------------------------------------
E---|-----------------------------------------------------------------------

E---|-----------------------------------------------------------------------
B---|-----------------------------------------------------------------------
G---|--9---------------5-------7--------------------------------------------
D---|--9---------------5-------7--------------------------------------------
A---|--7---------------3-------5--------------------------------------------
E---|-----------------------------------------------------------------------

* Same as above : the rithmic part
* is just the right chord sequence


SOLO 1

E---|-----------------------------------------------------------------------
B---|-----------------------------------------------------------------------
G---|--/12-11---9-11-12-12/14-12-11-12---12/14-12-11-14/16--12-11-12--11-------------------------------------------
D---|-----------------------------------------------------------------------
A---|-----------------------------------------------------------------------
E---|-----------------------------------------------------------------------

E---|-----------------------------------------------------------------------
B---|--------/17-17-17\\---20-19-17-20-19-17-20-19-17-20^-20^20^20^-19-17---
G---|-11/14-----------------------------------------------------------------
D---|-----------------------------------------------------------------------
A---|-----------------------------------------------------------------------
E---|-----------------------------------------------------------------------


E---|-----------------------------------------------------------------------
B---|-----------------------------------------------------------------------
G---|--19-17-15-17-19171517--17161416-16141214-9-9-11-11-\\-----------------
D---|-----------------------------------------------------------------------
A---|-----------------------------------------------------------------------
E---|-----------------------------------------------------------------------

* I think this is the right tab of this solo
* but I did'nt catch the rithmics
                           
                           1.2.3
RIFF E                    |---------------------- 
                                       G3: FILL 1
E---|--------------------------------------------|--------------------------
B---|--------------------------------------------|--------------------------
G---|--------------------------------------------|--------------------------
D---|---------------------------------------2----|--------------------------
A---|-7-7--9--9--10-10----------------------2----|--------------------------
E---|---------------------------------------0----|--------------------------

E---|--------------------------------------------|--------------------------
B---|--------------------------------------------|--------------------------
G---|-9-9--11-11--12-12--/12-11-9-12119-1211-9\--|-------------------------
D---|--------------------------------------------|--------------------------
A---|--------------------------------------------|--------------------------
E---|--------------------------------------------|--------------------------

* I'm sure this is right
* be sure to play at the same 
* time the first 6 notes                  1.2.3
* The first three times do what is under |--------------------
* then play the solo
* The rithmic part under the solo is the same
* as RIFF E
    
    |4.------------- - - -
E---|-----------------------------------------------------------------------
B---|-----------------------------------------------------------------------
G---|-/12-11-9-12119-12-11-/14-12-11--9-11--11/12--11--9-11-----------------
D---|--------------------------------------------------------10-10-9-9------
A---|------------------------------------------------------------------10-9-
E---|-----------------------------------------------------------------------

E---|------------------------------------------------15-14-12-\-------------
B---|-------------------------------------------/12-------------------------
G---|---------9-8--9-8-9-11-12--11-12-/14-12-11-----------------------------
D---|------9------9---------------------------------------------------------
A---|9----------------------------------------------------------------------
E---|-----------------------------------------------------------------------

FILL 1

E---|----------|------------------------------------------------------------
B---|----------|------------------------------------------------------------
G---|----------|------------------------------------------------------------
D---|----5-4-2-|------------------------------------------------------------
A---|----5-4-2-|------------------------------------------------------------
E---|--0-3-2-0-|------------------------------------------------------------


I think that's all
I worked a lot of time finding out this but finally it's good
You must find out by yourself the right riffs sequence
Remember to send me some TABS if you have.Doing this way
you will be able to get other TABS of various black,death
bands.I will send the list to you if you leave me your e-mail

LYRICS  
------
Marching through reality
With a lie before your eyes
Adapt and die
In the endless maze of life

Embedded in apathy
See future in the past
To weak to try
to break the chain at last

CHORUS:
I stare into your eyes 
And i watch somthing die
I turn away and run
Into oblivion

Softly I'm buried now
Buried into the gray
Be silent, be dead
Just do what others say

I look at you
You strive to find the way
You're silent,you're dead
You do what others say

CHORUS

I can see through you
You're not in harmony
Not in harmony with life
Just like me

Alive but dead
Alive but dead

Search for nothing
In this life that i abuse
A rage against time
that I'm about to lose

I can read your mind
You think We've just begun
My friend you're lost
Towards the end we run

CHORUS
Suggest correction
Give kudos to tab author, rate the tab!
1 2 3 4 5
comments
print report bad tab
guest
You may want to rate the tab now too:
select rating
Wanna post a correction for this tab? Suggest correction