Oops, an error
Loading. Please wait.

Into Eternity Tab

675 views 1 this week
no commentswrite comment
1 2 3 4 5
3 more votes to show rating
add to favorites
launch autoscroll
font size
0
reset
how to read this tab
guitar tuner
Autoscroll
slow
fast
+/-
esc
set tempo
stop
Help us to improve Ultimate-Guitar.com Take our survey!
×
                                   INTO ETERNITY
                                 from INTO ETERNITY
                                    by DESULTORY

Transcription by Yalin Uluaydin  E-mail:yeralan@superonline.com

.  - palm mute                          /  - slide up to
\  - slide down to                      ~  - vibrato
h  - hammer on                          b  - bend
p  - pull off                              Suffixes for bend
*  - see comment                                f-full bend
                                                r-release
                                        ph - pinched harmonic
Tune 1/2 step down.

E=D#
B=A#
G=F#
D=C#
A=G#
E=D#


INTRO

RIFF A                              *Done by guitar 2
E--------------------------------------------------------------------------------------|
B--------------------------------------------------------------------------------------|
G-----------------------------------*(3)ph---------------------------------------------|
D-------------------------------------3------------------------------------------------|
A--2-2-5-3-3/5\3----------2-2-5-3-3-5-1------------------------------------------------|
E--0-0-3-1-1/3\1-11111111-0-0-3-1-1/3---------0-0-3-1-1/3\1-111111111-666666-5555-7777-|


E--------------------------------------------------------------------------------------|
B--------------------------------------------------------------------------------------|
G------------------------------------(3)ph---------------------------------------------|
D-------------------------------------3-------------------------------888888-7777-9999-|
A--2-2-5-3-3/5\3----------2-2-5-3-3-5-1------------------------------------------------|
E--0-0-3-1-1/3\1-11111111-0-0-3-1-1/3---------0-0-3-1-1/3\1-111111111-666666-5555-7777-|
                                                                      ...... .... .... 

                                                                     |-----------------|
                                                                     |-----------------|
                                                                     |-----------------|
                                                                     |888888-7777------|
                                                                     |------------5-3--|
                                                                     |------------3-1--|
                                                                     LAST TIME
RIFF B VERSE
E--------------------------------------------------|
B--------------------------------------------------|
G----------------------------------------5-7-8-7-5-|
D--------------------------------------------------|
A-2-222-5-3-3-5-2-222-2-1--2-222-5-3-3-5-3-5-6-5-3-|
E-0-000-3-1-1/3-0-000------0-000-3-1-1/3-----------|
  .  ...         . ...     . ...

RIFF C x2
E-----------------------------------------|
B-----------------------------------------|
G-----------------------------------------|
D-----------------------------------------|
A------7777-5555-7777------7777------7777-|
E-0000----------------8888------7777------|
  .... .... .... .... .... .... .... ....


E------------------------|------------------------|
B------------------------|------------------------|
G------------------------|------------------------|
D------------------------|----9--7--9-----9-----9-|
A----7--5--7-----7-----7-|----7--5--7-----7-----7-|
E-0-----------8-----7----|-0-----------8-----7----|

Back to RIFF A


E-------------------|
B-------------------|
G-5--10--9--4--9--7-|
D-5--10--9--4--9--7-|
A-3---8--7--2--7--5-|
E-------------------|

RIFF D                                           *two guitars
E----------------------------------------|------------------------------------|---------|
B----------------------------------------|------------------------------------|---------|
G----------------------------------------|------------------------------------|---------|
D-----------------/8-7-------------------|------------------------------------|---------|
A-2---------2-2-3--------------3-3-2^3-2-|--2----*/7-5-/8--7---3---/7-5-/8--7-|-3-3-3-2-|
E-0-0-0-0-0-0-0-1------0-0-0-0-1-1-------|--0------5-3--6--5------------------|-1-1-1-0-|
    . . . .            . . . .

Back to RIFF A

                                       RIFF E
E-------------------------------------|--------------------------------------------------------|
B-------------------------------------|--------------------------------------------------------|
G-------------------------------------|--------------------------------------------------------|
D--2----------------------------3/5-5-|--------------------2/5-5-----------------------3/5-5---|
A--2-------3--3-3-3--3-3--3-3---------|-2--2-2-2--2-2--2----------3--3-3-3--3-3--3-3-----------|
E--0-------1--1-1-1--1-1------1-------|-0--0-0-0--0-0----0--------1--1-1-1--1-1------1---------|
              . .    .                     . .    .                  . .    . 

RIFF under SOLO
E------------------------------------------------------|
B------------------------------------------------------|
G------------------------------------------------------|
D------------------------------------------------3/5-5-|
A--2--2-2-2--2-2--2-2-2--2-2-3--3-3-3--3-3-3-3---------|
E--0--0-0-0--0-0--0-0-0--0-0-1--1-1-1--1-1-----1-------|
      . .    .    . .    . .    . .    .

1st SOLO
E----------------------12-12-12-12-13-13-13-13--15^13^12-15^13^12-15^13^12-15^13^12-15^13^12-15^13^12---
B---------------p--p------------------------------p--p-----p--p-----p--p-----p--p-----p--p-----p--p-----
G-9---11-12---12^11^9-----------------------------------------------------------------------------------
D-------------------------------------------------------------------------------------------------------
A-------------------------------------------------------------------------------------------------------
E-------------------------------------------------------------------------------------------------------

E-15^13^12-15^13^12-15^13^12-13-10^8^7-7--7^8^10--8^10^12^10-13---13^12^10-13^12^10-12--
B---p--p-----p--p-----p--p--------p-p------h-h-----h--h--p----------p--p-----p--p-------
G---------------------------------------------------------------------------------------
D---------------------------------------------------------------------------------------
A---------------------------------------------------------------------------------------
E---------------------------------------------------------------------------------------

                                                                                              with RIFF E
E-13^12^10-13^12^10-12^10^8-12^10^8-8--10--10--8--7--8b10-8--8b10r8-8b10r8-7--8b10-8--8b10--8-7----------
B---p--p-----p--p-----p--p----p--p-----------------------------------------------------------------------
G--------------------------------------------------------------------------------------------------------
D--------------------------------------------------------------------------------------------------------
A--------------------------------------------------------------------------------------------------------
E--------------------------------------------------------------------------------------------------------


E-----------------------|
B-----------------------|
G-9-10---10b12--10--9~--|
D-----------------------|
A-----------------------|
E-----------------------|


Ending of second SOLO
TREMOLO PICKING
E-13-12-10-13--12-10-13--12-10-13--12-10-12-15-13-12-15--13-12--17-15-13-19-17-15-20--12~------
B----------------------------------------------------------------------------------------------
G----------------------------------------------------------------------------------------------
D--------------------------------------------------------------------------------------2-------
A--------------------------------------------------------------------------------------2-------
E--------------------------------------------------------------------------------------0-------


E------------------------------------------------------------------------------|
B------------------------------------------------------------------------------|
G------------h-----------------------------------------------------------------|
D-5-5-3-3-2-2^3-3----5-5-3-3-2-2^3-2----5-5-3-3-2-2^3-3----5-5-3-3-2-2^3-2-----|
A---------------3------------------2------------------3------------------------|
E---------------1------------------0------------------1------------------0-----|
Suggest correction
Give kudos to tab author, rate the tab!
1 2 3 4 5
comments
print report bad tab
guest
You may want to rate the tab now too:
select rating
Wanna post a correction for this tab? Suggest correction