Oops, an error
Loading. Please wait.

Life Shatters Tab

version 1
version 1

Whole song

Interactive

426 views 1 this week
no commentswrite comment
1 2 3 4 5
please rate
add to favorites
launch autoscroll
font size
0
reset
how to read this tab
guitar tuner
Tab Pro tools
  • play this tab
  • loop segment
  • change instrument
  • show fretboard
  • metronome
Autoscroll
slow
fast
+/-
esc
set tempo
stop
This file was created using TabExpert 2 by Ugo Gasparri
                            09/11/97 - 14.53.41

Life Shatters By Desultory
>From the album Bitterness
Dated 1994

Transcribed by Ugo Gasparri
ugo_er_mejo@geocities.com

Note - The whole song is tuned in D.
       
RIFF A
E-|------------------------------------------------------------
B-|------------------------------------------------------------
G-|-------4----5----7------------------------------------------
D-|--2----4----5----7------------------------------------------
A-|--2----2----3----5------------------------------------------
E-|--0---------------------------------------------------------
*
*
*
FILL 1
E-|------------------------------------------------------------
B-|------------------------------------------------------------
G-|----------------/12-11-12-----------------------------------
D-|---/9-8-/9--------------------/9-8-/12~~~~------------------
A-|------------------------------------------------------------
E-|------------------------------------------------------------
*
*
*
RIFF B
E-|------------------------------------------------------------
B-|------------------------------------------------------------
G-|------------------------------------------------------------
D-|--2-----2-----2---------------------------------------------
A-|--2-----2-----2----2-----0----------------------------------
E-|--0-0-0-0--0--0--0---2-3---1-2-------------------------------
* I'm not sure on the last notes.
*
*
RIFF C
E-|------------------------------------------------------------
B-|------------------------------------------------------------
G-|------------------------------------------------------------
D-|-2----------------------------------------------------------
A-|-2-------2--------------------------------------------------
E-|-0-0-3-2----------------------------------------------------
*
*
*

E-|------------------------------------------------------------
B-|------------5------------------------------------5-----8-8--
G-|----------4---4/5-4h5~~-/7-5-4-5p4\2h4---------4---5--------
D-|---/5-4-2-------------------------------/5-4-2--------------
A-|------------------------------------------------------------
E-|------------------------------------------------------------
                                                        
 
 

E-|------------------------------------------------------------
B-|--/10-8-7----8-7--------------------------------------------
G-|----------7------7\-----------------------------------------
D-|------------------------------------------------------------
A-|------------------------------------------------------------
E-|------------------------------------------------------------
* This is the first "solo".It's easy but really awesome.
* Play it with feeling.Slidings and vibratoes are necessary
* to build feeling
BRIDGE

E-|------------------------------------------------------------
B-|--4--2--------4h5-----4-----4-------4-5---------------------
G-|--------5--2-------5----------5-4-2-----5-4-----------------
D-|------------------------------------------------------------
A-|------------------------------------------------------------
E-|------------------------------------------------------------

E-|------------------------------------------------------------
B-|------------------------------------------------------------
G-|---9--/12-9--12-12-12-11--12-/14-12--11-12-11--9-11-9--7-5--
D-|------------------------------------------------------------
A-|------------------------------------------------------------
E-|------------------------------------------------------------

E-|------------------------------------------------------------
B-|------------------------------------------------------------
G-|--7p5--5h7p5\4h5p4---4-------------------/9-9---9-12-12-----
D-|-------------------7---7--5--4--5-4-------------------------
A-|------------------------------------7-----------------------
E-|------------------------------------------------------------

E-|------------------------------------------------------------
B-|------------------------------------------------------------
G-|-14-14--16-16-14----12h14--12-11-12-12-12h14p12-11h12p11\---
D-|------------------------------------------------------------
A-|------------------------------------------------------------
E-|------------------------------------------------------------

       1/2 step
E-|---/--------------------------------------------------------
B-|--11----------9-9-9\----------------------------------------
G-|------------------------------------------------------------
D-|------------------------------------------------------------
A-|------------------------------------------------------------
E-|------------------------------------------------------------
* The Solo(This is great but VERY easy)
E-|---------------------|--------------------------------------
B-|--4h5p4h5p4h5p4h5p4--|--0h2p0-4h5p4-0h2p0-------------------
G-|---------------------|--------------------------------------
D-|---------------------|--------------------------------------
A-|---------------------|--------------------------------------
E-|---------------------|--------------------------------------
* Another part of the bridge


E-|------------------------------------------------------------
B-|------------------------------------------------------------
G-|------------------------------------------------------------
D-|------------------------------------------------------------
A-|------------------------------------------------------------
E-|------------------------------------------------------------
*
*
*

E-|------------------------------------------------------------
B-|------------------------------------------------------------
G-|------------------------------------------------------------
D-|------------------------------------------------------------
A-|------------------------------------------------------------
E-|------------------------------------------------------------
*
*
*

I didn't worry for the rythmic parts.Those are only
chords played very slow.I left two forms up here to
fill with them,if you need.
It seems to me quite correct,also the solo.

I hope this will be useful.
For comments,corrections,suggestions,or what fucking ever
(also simply mail exchange) mail me at:

ugo_er_mejo@geocities.com
comments
We did not receive enough feedback on this tab! Please rate:
print report bad tab
1 2 3 4 5
I want to post or [tab]
guest
You may want to rate the tab now too:
select rating
Please do not post tabs as comments. Select "correction" instead!