Oops, an error
Loading. Please wait.

Ud I Det Blaa Chords

2,844 views 12 this week
no commentswrite comment
1 2 3 4 5
accurate
x 3
add to favorites
launch autoscroll
font size
0
reset
transpose
0
reset
simplify chords
display chords
guitar tuner
Autoscroll
slow
fast
+/-
esc
set tempo
stop
Help us to improve Ultimate-Guitar.com Take our survey!
×
Author
Maitinin 23,606
    _____________________
   / Det Brune Punktum  /
  / Ud i det blå       /
 / Helbredelsen       /
/____________________/

 Dette er en figur for guitar samlet af Clavinet-riffet,
 bas-gangen og Rhodes'ens akkorder, der spilles i introen:
  F#m7                        B9
|---------------------------------|-2-----2-------------------------|
|-2-----2---------2---------------|-2-----2-----4---2---4---4-------|
|-4p2h4---2-------2---------------|-2-----2-----4---2---4---4-------|
|-2---------4-----4-----2-----1---|---------------------------------|
|-----------------------------2---|-----------------2---------------|
|-2-------------------2-----------|-------------------------0-------|


 Intro:
||: F#m7 | B9 | F#m7 | B9 :||                                    *tonart: F# mol


 Vers:
| F#m7 | B9 | F#m7 | B9 |
| F#m7 | B9 | Bm7 | C#7 |


 Vers


 Pre-Chorus:
| D9 | - | A/B | B  C7#9 ||


 Omkvæd:
| Fm7 | Bb9 | Fm7 | Bb9 |                                     *modulation: F mol
| Fm7 | Bb9 | C7sus4 | C7 |


 Vers

 Pre-Chorus

 2x Omkvæd


 Sax-solo:
| F(add2) | Am7 | Bbm7 | Gm7  Bb/C |
| F(add2) | Dm9 | Gm7 | Bb/C  Aaug/B |
| Bb(add2) | Bbm | Bbm6 |


 2x Omkvæd

 Outro (Omkvæd)


------------------------------------------------------------------------------
 30th /November /10
 Just mail me at Maitinin@gmail.com with questions, comments and corrections!
------------------------------------------------------------------------------


 " Maitinin writing here - the author of this tab.

   The past 11 years, I have generated 10,318,000 views and 815 top-rated tabs for this site.
   If you want to support an eager contributor like me, check out my own site:


   _____ http://www.PlayLikeTheGreats.com _____


   Here I will continue uploading my transcriptions - and hopefully make a bit more than nothing.

   Best regards,
   Maitinin "
Suggest correction
What's this?
You can suggest a correction to this tab. Community and Mods will review your correction and vote to approve or reject it.
comments
We did not receive enough feedback on this tab! Please rate:
print report bad tab
1 2 3 4 5
guest
You may want to rate the tab now too:
select rating
Please do not post tabs as comments. Select "correction" instead!