Oops, an error
Loading. Please wait.

Crush My Battle Opponents Balls Tab

version 1
version 1
31,535 views 1 this week
13 commentsread comments
1 2 3 4 5
accurate
x 19
add to favorites
launch autoscroll
font size
0
reset
how to read this tab
guitar tuner
Autoscroll
slow
fast
+/-
esc
set tempo
stop
Help us to improve Ultimate-Guitar.com Take our survey!
×
Author
Difficulty
intermediate

I want this tab!

Sorry, this artist has told us we can not show this tab.

Help us change their mind!
Tell us why you want to learn this song or why it is important to you, and
we will share these directly with the artist or their representative.
Your words and your story can make a difference. It works!

To understand more on what is happening, please read this article:
Why Songs on Ultimate Guitar Are Licensed (time to read: 1 minute)

comments
print report bad tab
13 comments total. Showing first comments.
0 reply
Lrn2play 1,361 wrote on December 9 2007, 02:57 am

finally someone did a text version
awesome job on showing other ways to do it but for the part after the taps i do (and
recommend)

 
e:-----------------------------------------------------
b:-----------------------------------------------------
g:-----4h7---4h7---4h7---4h6---4h7---4h6---4h7---4h6---
d:--5h7---5h7---5h7---5h7---5h7---5h7---5h7---5h7------
a:-----------------------------------------------------
e:-----------------------------------------------------


and repeat and move up 2 frets and do it and repeat, so on and so forth.

0 reply
BCrichwarlockz1 79 wrote on January 23 2008, 12:23 am

it took long enough to finaly get a non- guitar pro version!!!!!!! Now i got got somethin to work with to practice!!!!!
Sweet tabs too :)

0 reply
skwisgaar5051 158 wrote on February 3 2008, 04:02 pm

heres an easy way to do the intro and last part after sweeping
3 times then alternate 3 times with this
1
c.|-------9-12---|-------9-10--------|
g.|-10-12--------|-10-12-------------|
d*|----------------------------------
|
a*|----------------------------------|
f.|----------------------------------|
C.|----------------------------------
|

then just move it to the same spots as the 10 12 on the a*

guest
You may want to rate the tab now too:
select rating
Please do not post tabs as comments. Select "correction" instead!