Oops, an error
Loading. Please wait.

Biram chords

by Detour
214 views 1 this week
no commentswrite comment
1 2 3 4 5
2 more votes to show rating
add to favorites
×
Save as Personal and add changes to this tab that will be seen only by you. Learn more ›
×
You can save this tab as Personal to edit and correct it or add notes. All changes will be seen only by you. Learn more »
launch autoscroll
font size
0
reset
transpose
0
reset
display chords
guitar tuner
edit
Autoscroll
slow
fast
+/-
esc
set tempo
stop
Author
Difficulty
Strumming
There is no strumming pattern for this song yet. and get +5 IQ
[Intro]

    F                                     Gm  
e|--10-8---10-8-10-13-10-8---10-8-------|----------------------------------|
B|--------------------------------10----|-8-8-8-8-8-8/10-------------------|
G|-----------------------------------10-|-----------------7~~--------------|
D|--------------------------------------|----------------------------------|
A|--------------------------------------|----------------------------------|
E|--------------------------------------|----------------------------------|

    A#                                    F
e|--------------------------------------|-------------10---13--------------|
B|--8--6---8--6--8--9--8--6---8--6--8--6|-8/10-13--------------------------|
G|--------------------------------------|----------------------------------|  
D|--------------------------------------|----------------------------------| 
A|--------------------------------------|----------------------------------|
E|--------------------------------------|----------------------------------|

    F                                     Gm  
e|--10-8---10-8-10-13-10-8---10-8-------|----------------------------------|
B|--------------------------------10----|-8-8-8-8-8-8/10-------------------|
G|-----------------------------------10-|-----------------7~~--------------|
D|--------------------------------------|----------------------------------|
A|--------------------------------------|----------------------------------|
E|--------------------------------------|----------------------------------|

    A#                                    F
e|--------------------------------------|-------------10---13--------------|
B|--8--6---8--6--8--9--8--6---8--6--8--6|-8/10-13--------------------------|
G|--------------------------------------|----------------------------------|  
D|--------------------------------------|----------------------------------| 
A|--------------------------------------|----------------------------------|
E|--------------------------------------|----------------------------------|


[Verse 1]
F                               Gm
I kuda sada pobjeći, u šume ili gore,
               A#                         F
u Irsku il' na more, negdje gdje je čišći zrak...
F                                Gm
Pogodi kamo idemo kad vode nas luđaci,
            A#               F
skockani pajaci, sumjivi tipovi...


[Pre-chorus]
       A                    Dm
I sada napokon sam pukao ko kokica,
 A                                       A#               C
i fućka mi se za sve, moralno relativne, hulje, ogrnute u zastave...


[Chorus]
F
Biram, biram da vas nema,
            Gm
biram, više neću da se živciram,
     A#
fokusiram dalje od problema,
              F
gledam da vas nema...
F
Biram, biram što mi treba,
           Gm
neću da mi takve ljuske kvare dan,
     A#
eskiviram jer glupost je ko ljubav,
        F
neuništiva...


[Bridge]
G Am C G


[Verse 2]
G                                     Am
I kuda sada pobjeći, pod zemlju il' u svemir,
              C                        G
gdje je manji nemir, gdje je manje ludila...
       G                           Am
Pogodi kamo idemo kad vladaju prostaci(i kumovi),
         C                    G
oteli su gradove, delaju hramove...


[Pre-chorus]
       B                    Em
I tako napokon sam pukao ko kokica,
 B                                    C                 D
i fućka mi se za sve, profitere, plagijatore, ogrnute u zastave


[Chorus]
G
Biram, biram da vas nema,
            Am
biram, više neću da se živciram,
     C
fokusiram dalje od problema,
              G
gledam da vas nema...
G
Biram, biram što mi treba,
           Am
neću da mi takve ljuske kvare dan,
     C
eskiviram jer glupost je ko ljubav,
        G
neuništiva


[Interlude]
G   Am      C    G
Lajla, lajla lajla


[Outro]
G                 
i biram jer vi ste jedno čudo,
            Am
svete krave debele od ratova,
         C 
protestiram jer glupost je ko ljubav,
        G  D        G  D        G  D        G
neuništiva, neuništiva, neuništiva, neuništiva

            
            
Suggest correction
Creating personal tab
Creating personal tab
You can edit any tab online and save it as your Personal.

You can edit, replace or remove any tab part or add personal notes – all changes will be seen only by you.

Personal tabs can be accessed anytime from any device, even offline.
Learn more »
Give kudos to tab author, rate the tab!
1 2 3 4 5
comments
print report bad tab
guest
You may want to rate the tab now too:
select rating
Wanna post a correction for this tab? Suggest correction