Oops, an error
Loading. Please wait.

America tab

version 1
version 1

Whole song

by deuce
4,792 views 6 this week
1 commentread comment
1 2 3 4 5
x 3
add to favorites
×
Save as Personal and add changes to this tab that will be seen only by you. Learn more ›
×
You can save this tab as Personal to edit and correct it or add notes. All changes will be seen only by you. Learn more »
launch autoscroll
font size
0
reset
how to read this tab
guitar tuner
backing track
0:00
0:00
edit
Autoscroll
slow
fast
+/-
esc
set tempo
stop
Artist:Deuce
Song:America
Tuning: Drop C

Intro/Chorus (figure out the strumming yourself,pretty easy :D)
D  :----------------|----------------|----------------|----------------|(4x)
A  :----------------|----------------|----------------|----------------|
F  :----------------|----------------|----------------|----------------|
C  :----------------|----------------|----------------|----------------|
G  :-4-4-4-4-4-4-4-4|-----7-7-7-7-7-7|-0-0-0-0-0-0-0-0|-----2-2-2-2-2-2|
C  :----------------|----------------|----------------|----------------|



(NO GUITAR IN THE VERSE)


Pre-Chorus
D  :----------------|----------------|----------------|----------------|(2x)
A  :----------------|----------------|----------------|----------------|
F  :----------------|----------------|----------------|----------------|
C  :----------------|----------------|----------------|----------------|
G  :4~--------------|7~--------------|0~--------------|2~--------------|
C  :----------------|----------------|----------------|----------------|


(CHORUS AGAIN)
(NO GUITAR IN THE VERSE AGAIN)
(PRE-CHORUS/CHORUS AGAIN)


Breakdown
D  :----------------|----------------|----------------|----------------|(2x)
A  :----------------|----------------|----------------|----------------|
F  :----------------|----------------|----------------|----------------|
C  :----------------|----------------|----------------|----------------|
G  :-432-432-43-----|-432-432--------|-432-432-43-----|-432-432--------|
C  :----------------|----------------|----------------|----------------|


(PRE-CHORUS/CHORUS ONE MORE TIME)


Final Note
D  :----------------|
A  :----------------|
F  :----------------|
C  :----------------|
G  :-4~-------------|
C  :----------------|

THIS IS MY FIRST TAB AND ACTUALLY...THE FIRST TAB OF THIS SONG! ANY COMMENTS/
COMPLIMENTS,E-MAIL ME: markostheundead@yahoo.com
THANK YOU!

            
            
Suggest correction
Creating personal tab
Creating personal tab
You can edit any tab online and save it as your Personal.

You can edit, replace or remove any tab part or add personal notes – all changes will be seen only by you.

Personal tabs can be accessed anytime from any device, even offline.
Learn more »
Give kudos to tab author, rate the tab!
1 2 3 4 5
comments
print report bad tab
1 comment total.
+1 reply
kronnozz 125 Jan 07, 2012 05:34 AM

I do not find any problems with this tab... maby that i play the chorus like this. in other words it's a great tab :)

D :----------------|----------------|----------------|----------------|(4x)
A :----------------|----------------|----------------|----------------|
F :----------------|----------------|----------------|----------------|
C :-6-6-6-6-6-6-6-6|-----9-9-9-9-9-9|-2-2-2-2-2-2-2-2|-----4-4-4-4-4-4|
G :-4-4-4-4-4-4-4-4|-----7-7-7-7-7-7|-0-0-0-0-0-0-0-0|-----2-2-2-2-2-2|
C :----------------|----------------|----------------|----------------|

guest
You may want to rate the tab now too:
select rating
Wanna post a correction for this tab? Suggest correction