Oops, an error
Loading. Please wait.

Pocket Revolution Tab

by dEUS
918 views 1 this week
no commentswrite comment
1 2 3 4 5
please rate
add to favorites
launch autoscroll
font size
0
reset
how to read this tab
guitar tuner
Autoscroll
slow
fast
+/-
esc
set tempo
stop
Help us to improve Ultimate-Guitar.com Take our survey!
×
Difficulty
novice
dEUS – pocket revolution

I found just a little part of the song, but if this little tab inspires someone else to 
the whole song ;-)

the bassline


E	|----------------------------------------------------------------|
B	|----------------------------------------------------------------|
G	|----------------------------------------------------------------|
D	|----------------------------------------------------------------|
A	|----------------------------------------------------------------|
E	|--------3-3-3-3-6—3-3-3-3-8-------------------------------------|

The chorus


E	|---------------------------------------------------------------|
B	|---------------------------------------------------------------|
G	|------------------6----7---- 9-----4---------------------------|
D	|-----------12-----7----8----10---- 5---------------------------|
A	|-----------12-----7----8--- 10-----5---------------------------|
E	|-----------10-----5----6-----8-----3---------------------------|


The chorus is 100% right, I watched them play it live
Suggest correction
Give kudos to tab author, rate the tab!
1 2 3 4 5
comments
print report bad tab
guest
You may want to rate the tab now too:
select rating
Please do not post tabs as comments. Select "correction" instead!