Oops, an error
Loading. Please wait.

Right As Rain Tab

by dEUS
3,550 views 3 this week
no commentswrite comment
1 2 3 4 5
please rate
add to favorites
launch autoscroll
font size
0
reset
how to read this tab
guitar tuner
Autoscroll
slow
fast
+/-
esc
set tempo
stop
Help us to improve Ultimate-Guitar.com Take our survey!
×
Right As Rain

transcription by Avi (ifaty@netvision.net.il)

I decided that making an "ultimate" tab for this song would be a good 
idea, and so, here is my version, which has got both of the guitars 
each one apart. 
...and if u want to play this song on a single guitar then just take 
parts from each guitar as u like, there shouldn't be any problem.

---------
Guitar 1 
---------

Intro - 
e|--------------------|-------------------|
B|--------------------|-------------------|
G|--------------------|-------------------|
D|--------------------|------------5---7--|
A|--3--5--5/7-5-7-5-3-|--3--5--5/7---7----|
E|--------------------|-------------------|

First verse - 
   _________   _________   _________   _________
  / 4 times \ / 4 times \ / 4 times \ / 8 times \
e|-----------|-----------|-----------|-----------|
B|------7-6--|------6----|------7-6--|------6----|
G|----6------|----5---5--|----6------|----5---5--|
D|--8--------|--7--------|--8--------|--7--------|
A|-----------|-----------|-----------|-----------|
E|-----------|-----------|-----------|-----------|

Chorus - 
e|--------------------|------------------|
B|--------------------|------------------|
G|--------------------|------------------|
D|--------------------|------------5---7-|
A|--3--5--5/7-5-7-5-3-|--3--5--5/7---7---|
E|--------------------|------------------|

Second verse - 
   _________   _________
  / 4 times \ / 8 times \
e|-----------|-----------|
B|------7-6--|------6----|
G|----6------|----5---5--|
D|--8--------|--7--------|
A|-----------|-----------|
E|-----------|-----------|

Chorus - 
e|--------------------|------------------|
B|--------------------|------------------|
G|--------------------|------------------|
D|--------------------|------------5---7-|
A|--3--5--5/7-5-7-5-3-|--3--5--5/7---7---|
E|--------------------|------------------|

then tom says -
  "right as  rain"
     F       E
e|-------|-------|
B|-------|-------|
G|-------|-------|
D|-------|-------|
A|---8---|---7---|
E|-------|-------|

Bridge "tombstone damage..."- 
e|-------|--2--|-------0-|-------|-------0-|---------------|
B|-----3-|--3--|-----2---|-----3-|-----2---|-------3-------|
G|-2h4---|--4--|-0h2-----|-2h4---|-0h2-----|---4-----4---4-|
D|-------|--4--|---------|-------|---------|-5---5-----5---|
A|-------|-----|---------|-------|---------|---------------|
E|-------|-----|---------|-------|---------|---------------|

                              "but anyway..."
e|---------------|-------|---|--------------|
B|---------------|-------|---|-----5--3-----|
G|---6---7-6---6-|-------|---|-----4--2-----|
D|-7---7-----7---|-----5-|-7-|--------------|
A|---------------|-5h7---|---|--------------|
E|---------------|-------|---|--------------|

Chorus ("this is where the saint...") - 
e|--------------------|-------|
B|--------------------|-------|
G|--------------------|--3/4--|
D|--------------------|-------|
A|--3--5--5/7-5-7-5-3-|-------|
E|--------------------|-------|

Third verse - 
   ________   ________   ________   ________              ________
  /4 times \ /4 times \ /4 times \ /4 times \            /3 times \
e|----------|----------|----------|----------|----------|----------|
B|-----7-6--|-----6----|-----7-6--|-----6----|-----6-6--|-----6----|
G|---6------|---5---5--|---6------|---5---5--|---5------|---5---5--|
D|-8--------|-7--------|-8--------|-7--------|-7--------|-7--------|
A|----------|----------|----------|----------|----------|----------|
E|----------|----------|----------|----------|----------|----------|

Chorus -
e|--------------------|------------------|
B|--------------------|------------------|
G|--------------------|------------------|
D|--------------------|------------5---7-|
A|--3--5--5/7-5-7-5-3-|--3--5--5/7---7---|
E|--------------------|------------------|

then tom says -
  "right as  rain"
     F       E
e|-------|-------|
B|-------|-------|
G|-------|-------|
D|-------|-------|
A|---8---|---7---|
E|-------|-------|

Bridge "tombstone damage..."- 
e|-------|--2--|-------0-|-------|-------0-|---------------|
B|-----3-|--3--|-----2---|-----3-|-----2---|-------3-------|
G|-2h4---|--4--|-0h2-----|-2h4---|-0h2-----|---4-----4---4-|
D|-------|--4--|---------|-------|---------|-5---5-----5---|
A|-------|-----|---------|-------|---------|---------------|
E|-------|-----|---------|-------|---------|---------------|

                              "but anyway..."
e|---------------|-------|---|--------------|
B|---------------|-------|---|-----5--3-----|
G|---6---7-6---6-|-------|---|-----4--2-----|
D|-7---7-----7---|-----5-|-7-|--------------|
A|---------------|-5h7---|---|--------------|
E|---------------|-------|---|--------------|

Chorus ("this is where the saint...") - 
e|---------------------|
B|---------------------|
G|---------------------|
D|------------5---7/9--|
A|--3--5--5/7---7------|
E|---------------------|

Outro - 
e|------6-|-------|-----6-|---------|-------|-----6--------------|
B|--------|-------|-------|---------|-------|--------------------|
G|-5h6----|-6-6h8-|-5h6---|-6-6-6h8-|-6-6---|-5h6----6-6h8-6-----|
D|--------|-6-6---|-------|-6-6-6---|-6-6h8-|----------------8-8-|
A|--------|-------|-------|---------|-------|--------------------|
E|--------|-------|-------|---------|-------|--------------------|

e|------6--------------|------6----------------|--------------------|
B|---------------------|-----------------------|--------------------|
G|-5h6-----6-6h8-6---6-|-5h6-----6-6h8-6---6---|-----6--8/9-8-6---6-|
D|-----------------8---|-----------------8---8-|-6h8------------8---|
A|---------------------|-----------------------|--------------------|
E|---------------------|-----------------------|--------------------|

e|-----------|-------|
B|-----------|-------|
G|-6-6-6-6h8-|-------|
D|-----------|--6h8--|
A|-----------|-------|
E|-----------|-------|

---------
Guitar 2 
---------

Intro - 
e|-------|-----|-------|-------|-----|--------------------|
B|--1h0--|--0--|--0h1--|--1h0--|-----|-----1------1-----1-|
G|-------|-----|-------|-------|--0--|-2-----2------2-----|
D|-------|-----|-------|-------|-----|---2-----2------2---|
A|-------|-----|-------|-------|-----|--------------------|
E|-------|-----|-------|-------|-----|--------------------|

e|------------------------------------------------------|
B|-------2------2-----2-----2/1-----1-----1-----1-----1-|
G|---3-----3------3-----3-------2-----2-----2-----2-----|
D|-3---3-----3------3-----3-------2-----2-----2-----2---|
A|------------------------------------------------------|
E|------------------------------------------------------|

First verse - 
e|----------------------------|---------------------------|
B|-------2------2-----2-----2-|-------1-----1-----1-----1-|
G|---3-----3------3-----3-----|---2-----2-----2-----2-----|
D|-3---3-----3------3-----3---|-2---2-----2-----2-----2---|
A|----------------------------|---------------------------|
E|----------------------------|---------------------------|
                                _________________________
 "I'm a saint..."              /         twice           \
e|----------------------------|---------------------------|
B|-------2------2-----2-----2-|-------1-----1-----1-----1-|
G|---3-----3------3-----3-----|---2-----2-----2-----2-----|
D|-3---3-----3------3-----3---|-2---2-----2-----2-----2---|
A|----------------------------|---------------------------|
E|----------------------------|---------------------------|

Chorus - 
e|-------|-----|-------|-------|-----|-----------------------------|
B|--1h0--|--0--|--0h1--|--1h0--|-----|--1------1-----1-----1-----1-|
G|-------|-----|-------|-------|-----|--2--2-----2-----2-----2-----|
D|-------|-----|-------|-------|-----|--2----2-----2-----2-----2---|
A|-------|-----|-------|-------|-----|-----------------------------|
E|-------|-----|-------|-------|-----|-----------------------------|

Second verse -                  _________________________  
"I'm a drunk by name..."       /         twice           \
e|----------------------------|---------------------------|
B|-------2------2-----2-----2-|-------1-----1-----1-----1-|
G|---3-----3------3-----3-----|---2-----2-----2-----2-----|
D|-3---3-----3------3-----3---|-2---2-----2-----2-----2---|
A|----------------------------|---------------------------|
E|----------------------------|---------------------------|

Chorus -                             F   E   "rain..."
e|-----|---|-----|---|-----|---|---|-1-|--------------------------|
B|-1h0-|-0-|-0h1-|-1-|-1h0-|---|-1-|-1-|-------0-----0-----0----0-|
G|-----|---|-----|---|-----|-0-|---|-2-|---1-----1-----1-----1----|
D|-----|---|-----|---|-----|---|---|-3-|-2---2-----2-----2-----2--|
A|-----|---|-----|---|-----|---|---|-3-|--------------------------|
E|-----|---|-----|---|-----|---|---|-1-|--------------------------|

Bridge "tombstone damage..."- 
e|---------------------------|----------------|-------------0------0-
B|-------3-----3-----3-----3-|--------3-------|-------2-------2------
G|---4-----4-----4-----4-----|---4------4---4-|---2-----2------------
D|-4---4-----4-----4-----4---|-4---4------4---|-2---2-----2------2---
A|---------------------------|----------------|----------------------
E|---------------------------|----------------|----------------------

        "this is where the story..."
e|-----|---------------|-------------------------|
B|-2---|-------3-------|-------2-----2-----2-----|
G|---2-|---4-----4---4-|---2-----2-----2-----2---|
D|-----|-4---4-----4---|-2---2-----2-----2-----2-|
A|-----|---------------|-------------------------|
E|-----|---------------|-------------------------|

then just fret...
G / A / G 

...and then an F  

Chorus -                            
e|-----|---|-----|-----------------|
B|-1h0-|-0-|-0h1-|-----1-----1-----|
G|-----|---|-----|-2-----2-----2---|
D|-----|---|-----|---2-----2-----2-|
A|-----|---|-----|-----------------|
E|-----|---|-----|-----------------|

Third verse - 
e|----------------------------|---------------------------|
B|-------2------2-----2-----2-|-------1-----1-----1-----1-|
G|---3-----3------3-----3-----|---2-----2-----2-----2-----|
D|-3---3-----3------3-----3---|-2---2-----2-----2-----2---|
A|----------------------------|---------------------------|
E|----------------------------|---------------------------|
                                _________________________
                               /         twice           \
e|----------------------------|---------------------------|
B|-------2------2-----2-----2-|-------1-----1-----1-----1-|
G|---3-----3------3-----3-----|---2-----2-----2-----2-----|
D|-3---3-----3------3-----3---|-2---2-----2-----2-----2---|
A|----------------------------|---------------------------|
E|----------------------------|---------------------------|

Chorus - 
e|-----|---|-----|---|-----|---|---|---------------------------|
B|-1p0-|---|-0h1-|-1-|-1h0-|---|-1-|---1---1-1---1-1---1-1---1-|
G|-----|-0-|-----|---|-----|-0-|---|---2---2-2---2-2---2-2---2-|
D|-----|---|-----|---|-----|---|---|-3---3-----3-----3-----3---|
A|-----|---|-----|---|-----|---|---|---------------------------|
E|-----|---|-----|---|-----|---|---|---------------------------|

e|---------------|
B|---0---0-0---0-|
G|---1---1-1---1-|
D|-2---2-----2---|
A|---------------|
E|---------------|

Bridge "tombstone damage..."- 
e|---------------------------|----------------|-------------0------0-
B|-------3-----3-----3-----3-|--------3-------|-------2-------2------
G|---4-----4-----4-----4-----|---4------4---4-|---2-----2------------
D|-4---4-----4-----4-----4---|-4---4------4---|-2---2-----2------2---
A|---------------------------|----------------|----------------------
E|---------------------------|----------------|----------------------

"this is where the story..."
e|-----|---------------|-------------------------|
B|-2---|-------3-------|-------2-----2-----2-----|
G|---2-|---4-----4---4-|---2-----2-----2-----2---|
D|-----|-4---4-----4---|-2---2-----2-----2-----2-|
A|-----|---------------|-------------------------|
E|-----|---------------|-------------------------|

then just fret...
G / A / G 

...and then an F  

Chorus - 
e|-------|-----|-------|-----|
B|--1p0--|--0--|--0h1--|--1--|
G|-------|-----|-------|-----|
D|-------|-----|-------|-----|
A|-------|-----|-------|-----|
E|-------|-----|-------|-----|

Outro - 
e|----------------------------------------------------|
B|-------2-----2-----2------------2-----2-----2-------|
G|---3-----3-----3-----3-----3------3-----3-----3-----|
D|-3---3-----3-----3-----------3------3-----3---------|
A|-----------------------2-1----------------------2-1-|
E|----------------------------------------------------|
...and so on till the end as necessary 

-------------------
Two Guitars In One
-------------------

well, not really :-)
just a small tab of how u can play it on one guitar...

e|--------------------------|---------------------------------------|
B|-----1p0-----0--------0h1-|----1p0------------0h1------1-----1...-|
G|--------------------------|----------0---2---------2-----2--------|
D|----------0-----2-0-2-----|--------0---2---2---------2-----2------|
A|-3------------------------|-3-------------------------------------|
E|--------------------------|---------------------------------------|

this is just the main part, for all the other parts just pick your 
stuff from which ever guitar u wanna play

------> and also check out the acoustic trans. I did for it to know 
the chords and stuff

Enjoy !!
Suggest correction
What's this?
You can suggest a correction to this tab. Community and Mods will review your correction and vote to approve or reject it.
comments
We did not receive enough feedback on this tab! Please rate:
print report bad tab
1 2 3 4 5
guest
You may want to rate the tab now too:
select rating
Please do not post tabs as comments. Select "correction" instead!