Oops, an error
Loading. Please wait.

Smokers Reflect Chords

by dEUS
1,512 views 1 this week
no commentswrite comment
1 2 3 4 5
please rate
add to favorites
launch autoscroll
font size
0
reset
transpose
0
reset
display chords
guitar tuner
Autoscroll
slow
fast
+/-
esc
set tempo
stop
Help us to improve Ultimate-Guitar.com Take our survey!
×
Difficulty
novice
dEUS - Smokers Reflect

D C
The two black spots in your left eye
G A
Are from staring in the sun
D C
They follow everywhere you look
G A
Like a crosshair on a gun

D C
You're lighting one more cigarette
G A
The last one of the pack
D C
Reflecting on your life a bit
G A
But it ain't reflecting back

Em F#m G
Oh you should be doing this
Em F#m G D
With somebody you love

Piano riff: 2x
---------------------9-9-9-10-10-10-----------------------------------------------|
----------------------------------------------------------10----------------------|
-11-11-11-12-12-12----------------11-11-11-12-12-----9-9-9-7-7-7------------------|
----------------------------------------------------------------------------------|
----------------------------------------------------------------------------------|
----------------------------------------------------------------------------------|

D C
Scanning purple sunrise
G A
Before you crawl to bed
D C
And hearing Leonard Cohen sigh
G A
Is as deep as it will get

D C
Future is like burning time
G A
The past abiding steam
D C
And the woman that is here tonight
G A
Is a stranger with a dream

Em F#m G
Oh you should be doing this
Em F#m G D
With somebody you love

Piano riff: 2x
---------------------9-9-9-10-10-10-----------------------------------------------|
----------------------------------------------------------10----------------------|
-11-11-11-12-12-12----------------11-11-11-12-12-----9-9-9-7-7-7------------------|
----------------------------------------------------------------------------------|
----------------------------------------------------------------------------------|
----------------------------------------------------------------------------------|

G F#m
Oh you're oversimplifying
G F#m
So often you have pushed away
Em
Until a lonely spring
A
Comes tell you certain things

G F#m
There is no use in denying
G F#m
It's so true what they say
Em
That when the tide is high
C
You'll jump and frolic and then you'll dive
A
Until it pulls away

D C
Well everyone's at war it seems
G A
You need a mini truce
D C
And a screw to fix the mantelpiece
G A
Cause it's still hanging loose

D C
The last thought of the morning
G A
As the crimson turns grey
D C
You put yourself on warning like
G A
You're doing every day

Em F#m G
Oh you should be doing this
Em F#m G D
With somebody you love
Suggest correction
Give kudos to tab author, rate the tab!
1 2 3 4 5
comments
print report bad tab
guest
You may want to rate the tab now too:
select rating
Wanna post a correction for this tab? Suggest correction