Oops, an error
Loading. Please wait.

Via Bass Tab

version 2
version 2

Whole song

312 views 1 this week
no commentswrite comment
1 2 3 4 5
3 more votes to show rating
add to favorites
launch autoscroll
font size
0
reset
guitar tuner
×
Best way to learn
"Via"
Autoscroll
slow
fast
+/-
esc
set tempo
stop
Author
Difficulty
  follow
intermediate
This is just an improved version of the other bass tab from above.
If you find something wrong, your correction will be welcomed!

Intro
G|--------11-|--------12-|--------|-/17-17-------|
D|-----------|-----------|--------|--------17----|
A|-10-10-----|-10-10-----|--10/3--|-----------15-|
E|-----------|-----------|--------|--------------|

G|--------11-|--------12-|---------------|-----|-----|---4h5p4-|
D|-----------|-----------|---------------|-5-5-|-----|---------|
A|-10-10-----|-10-10-----|-10----------3-|-----|-3-3-|-3-------|
E|-----------|-----------|---------------|-----|-----|---------|

Verse
G|---------4-|-------------|
D|-------5---|---------4h5-|
A|-3-3-3-----|-3-5-5-5-----|
E|-----------|-------------|

G|---------|---------|---------|---------|
D|---------|-5-5-5-5-|---------|-4-4-4-4-|
A|-3-3-3-3-|---------|-5-5-5-5-|---------|
E|---------|---------|---------|---------|

Chorus
G|-----|-----|---|-----|---|-----|---|-----|-----------|-----------|
D|-----|-----|---|-----|---|-----|---|-----|-----------|-----------|
A|-----|-4---|---|-2---|---|-4---|---|-2---|---5-4-----|---5-4-2-2-|
E|-3-5-|---5-|-3-|---3-|-5-|---5-|-3-|---3-|-3-----5-5-|-3---------|
                                             _________   _______
                                            /  twice  \ / twice \
G|-----|-----|---|-----|---|-----|---|-----|-----------|---------|-----|
D|-----|-----|---|-----|---|-----|---|-----|-----------|---------|-----|
A|-----|-4---|---|-2---|---|-4---|---|-2---|---5-4-----|---5-4---|-----|
E|-3-5-|---5-|-3-|---3-|-5-|---5-|-3-|---3-|-3-----5-5-|-3-----5-|--3--|

Bridge
G|--------|-11-----------|-11------|
D|--------|---13-10------|---13-10-|
A|-10-10--|--------12-10-|---------|x2
E|--------|--------------|---------|

G|----------|----------|
D|----------|----------|
A|-3~~~~~15-|-3~~~~~15-|
E|----------|----------|

G|--------11-|--------12-|---------------|
D|-----------|-----------|---------------|
A|-10-10-----|-10-10-----|-10~~~-------3-|
E|-----------|-----------|---------------|

Outro
G|---------|-----|
D|---------|-----|
A|---5-4-0-|-----|
E|-3-------|--3--|
Suggest correction
Give kudos to tab author, rate the tab!
1 2 3 4 5
comments
print report bad tab
guest
You may want to rate the tab now too:
select rating
Wanna post a correction for this tab? Suggest correction