Oops, an error
Loading. Please wait.

In The Dark Tab

version 1
version 1

Whole song

by Dev
9,347 views 1 this week
no commentswrite comment
1 2 3 4 5
please rate
add to favorites
launch autoscroll
font size
0
reset
how to read this tab
guitar tuner
Tab Pro tools
  • play this tab
  • loop segment
  • change instrument
  • show fretboard
  • metronome
×
Best way to learn
"In The Dark"
Autoscroll
slow
fast
+/-
esc
set tempo
stop
Difficulty
novice
intro

-----------------------------------|----------------------------------------------|
|-----------------------------------|----------------------------------------------|
|-----------------12----------------|-----------------12---------------------12----|
|--10--10--10--10----13--13--12--12-|--10--10--10--10----13--13--12-------12----12-|
|-----------------------------------|-------------------------------10h13----------|
|-----------------------------------|----------------------------------------------|


verse/chorus


|--3--3--3--3----6--6--1--1-----|
|--4--4--4--4----6--6--1--1-----|
|--3--3--3--3----6--6--1--1-----|
|--5--5--5--5----8--8--3--3-----|
|--3--3--3--3----6--6--1--1-----|
|--3--3--3--3----6--6--1--1-----|


Bridge

|------------------|-------------------------------------|----------------------------|
|--12--12--12--12--|--13------------------------------11-|--13------------------------|
|------------------|------12-----------------------------|------12--------------------|
|------------------|----------12-13-------------12-13----|----------12-13-------------|
|------------------|----------------10-11--11------------|----------------10-11--11---|
|------------------|-------------------------------------|----------------------------|

|--10h11p10------|
|-----------13-11|
|----------------|
|----------------|
|----------------|
|----------------|
comments
We did not receive enough feedback on this tab! Please rate:
print report bad tab
1 2 3 4 5
I want to post or [tab]
guest
You may want to rate the tab now too:
select rating
Please do not post tabs as comments. Select "correction" instead!