Oops, an error
Loading. Please wait.

Body Breaks Tab

version 3
version 3

Whole song

2,723 views 1 this week
no commentswrite comment
1 2 3 4 5
please rate
add to favorites
launch autoscroll
font size
0
reset
how to read this tab
guitar tuner
Autoscroll
slow
fast
+/-
esc
set tempo
stop
Help us to improve Ultimate-Guitar.com Take our survey!
×
Author
                                The Body Breaks                                 


                                Devendra Banhart




     |--3--|  |--3--|  |--3--|  |---3--|    
     E  E  E  E  E  E  E  E  E  E  E   E    
E||-----------------9----------------------|
B||--7--L--------------------7-------------|
G||--------6--------------------------(6)--|
D||--7--L-----7--L-----7--L-----7--L-------|
A||----------------------------------------|
E||----------------------------------------|


  |--3--|  |--3--|  |--3--|  |---3--|    
  E  E  E  E  E  E  E  E  E  E  E   E    
-----------------7----------------------|
--5--L--------------------5-------------|
--------6--------------------------(6)--|
--6--L-----6--L-----6--L-----6--L-------|
----------------------------------------|
----------------------------------------|


                             >           
  |--3--|  |--3--|  |--3--|  |---3---|   
  E  E  E  E  E  E  E  E  E  E   E   E   
-----------------5-----------5s--7p--0--|
--3--L--------------------3-------------|
--------4-------------------------------|
--4--L-----4--L-----4--L----------------|
----------------------------------------|
----------------------------------------|


  |--3--|  |--3--|  |--3--|  |---3--|    
  E  E  E  E  E  E  E  E  E  E  E   E    
----------------------------------------|
--2--L-----------2----------------------|
--------2-----------------2--------(2)--|
--2--L-----2--L-----2--L-----2--L-------|
----------------------------------------|
----------------------------------------|


  |--3--|  |--3--|  |--3--|  |---3--|    
  E  E  E  E  E  E  E  E  E  E  E   E    
-----------------9----------------------|
-----------7--------------7-------------|
--------6--------------------------(6)--|
--7--L-----7--L-----7--L-----7--L-------|
----------------------------------------|
----------------------------------------|


  |--3--|  |--3--|  |--3--|  |---3--|    
  E  E  E  E  E  E  E  E  E  E  E   E    
-----------------7----------------------|
-----------5--------------5-------------|
--------6--------------------------(6)--|
--6--L-----6--L-----6--L-----6--L-------|
----------------------------------------|
----------------------------------------|


                             >           
  |--3--|  |--3--|  |--3--|  |---3---|   
  E  E  E  E  E  E  E  E  E  E   E   E   
-----------------5-----------5s--7p--0--|
-----------3--------------3-------------|
--------4-------------------------------|
--4--L-----4--L-----4--L----------------|
----------------------------------------|
----------------------------------------|


  |--3--|  |--3--|  |--3--|  |---3--|    
  E  E  E  E  E  E  E  E  E  E  E   E    
----------------------------------------|
--2--L-----------2----------------------|
--------2-----------------2--------(2)--|
--2--L-----2--L-----2--L-----2--L-------|
----------------------------------------|
----------------------------------------|


  |---3--|  |--3--|  |--3--|  |--3--|   
  E   E  E  E  E  E  E  E  E  E  E  E   
---------------------------------------|
--2h--3-----------3-----------3--L-----|
--2------2-----------------2--------2--|
------------2--L-----2--L-----2--L-----|
---------------------------------------|
---------------------------------------|


  |--3--|  |--3--|  |--3--|  |---3--|    
  E  E  E  E  E  E  E  E  E  E  E   E    
----------------------------------------|
--2--L-----------5----------------------|
--------2-----------------2--------(2)--|
--2--L-----2--L-----2--L-----2--L-------|
----------------------------------------|
----------------------------------------|


  |---3--|  |--3--|  |--3--|  |--3--|   
  E   E  E  E  E  E  E  E  E  E  E  E   
---------------------------------------|
--2h--3-----------3-----------3--L-----|
--2------2-----------------2--------2--|
------------2--L-----2--L-----2--L-----|
---------------------------------------|
---------------------------------------|


  |--3--|  |--3--|  |--3--|  |---3--|    
  E  E  E  E  E  E  E  E  E  E  E   E    
----------------------------------------|
--2--L-----------5----------------------|
--------2-----------------2--------(2)--|
--2--L-----2--L-----2--L-----2--L-------|
----------------------------------------|
----------------------------------------|


  |--3--|  |--3--|  |--3--|  |---3--|    
  E  E  E  E  E  E  E  E  E  E  E   E    
----------------------------------------|
-----------------2----------------------|
--------2-----------------2--------(2)--|
--2--L-----2--L-----2--L-----2--L-------|
----------------------------------------|
----------------------------------------|


  |--3--|  |--3--|  |--3--|  |---3--|    
  E  E  E  E  E  E  E  E  E  E  E   E    
-----------------9----------------------|
-----------7--------------7-------------|
--------6--------------------------(6)--|
--7--L-----7--L-----7--L-----7--L-------|
----------------------------------------|
----------------------------------------|


  |--3--|  |--3--|  |--3--|  |---3--|    
  E  E  E  E  E  E  E  E  E  E  E   E    
-----------------7----------------------|
-----------5--------------5-------------|
--------6--------------------------(6)--|
--6--L-----6--L-----6--L-----6--L-------|
----------------------------------------|
----------------------------------------|


  |--3--|  |--3--|  |--3--|  |---3--|    
  E  E  E  E  E  E  E  E  E  E  E   E    
-----------------5----------------------|
-----------3--------------3-------------|
--------4--------------------------(4)--|
--4--L-----4--L-----4--L-----4--L-------|
----------------------------------------|
----------------------------------------|


  |--3--|  |--3--|  |--3--|  |---3--|    
  E  E  E  E  E  E  E  E  E  E  E   E    
----------------------------------------|
--2--L-----------2----------------------|
--------2-----------------2--------(2)--|
--2--L-----2--L-----2--L-----2--L-------|
----------------------------------------|
----------------------------------------|


  |--3--|  |--3--|  |--3--|  |---3--|    
  E  E  E  E  E  E  E  E  E  E  E   E    
-----------------9----------------------|
-----------7--------------7-------------|
--------6--------------------------(6)--|
--7--L-----7--L-----7--L-----7--L-------|
----------------------------------------|
----------------------------------------|


  |--3--|  |--3--|  |--3--|  |---3--|    
  E  E  E  E  E  E  E  E  E  E  E   E    
-----------------7----------------------|
-----------5--------------5-------------|
--------6--------------------------(6)--|
--6--L-----6--L-----6--L-----6--L-------|
----------------------------------------|
----------------------------------------|


  |--3--|  |--3--|  |--3--|  |---3--|    
  E  E  E  E  E  E  E  E  E  E  E   E    
-----------------5----------------------|
-----------3--------------3-------------|
--------4--------------------------(4)--|
--4--L-----4--L-----4--L-----4--L-------|
----------------------------------------|
----------------------------------------|


  |--3--|  |--3--|  |--3--|  |---3--|    
  E  E  E  E  E  E  E  E  E  E  E   E    
----------------------------------------|
--2--L-----------2----------------------|
--------2-----------------2--------(2)--|
--2--L-----2--L-----2--L-----2--L-------|
----------------------------------------|
----------------------------------------|


  |---3--|  |--3--|  |--3--|  |--3--|   
  E   E  E  E  E  E  E  E  E  E  E  E   
---------------------------------------|
--2h--3-----------3--------------------|
--2------2-----------------2--------2--|
------------2--L-----2--L-----2--L-----|
---------------------------------------|
---------------------------------------|


  |--3--|  |--3--|  |--3--|  |---3--|    
  E  E  E  E  E  E  E  E  E  E  E   E    
----------------------------------------|
--2--L-----------2----------------------|
--------2-----------------2--------(2)--|
--2--L-----2--L-----2--L-----2--L-------|
----------------------------------------|
----------------------------------------|


  |---3--|  |--3--|  |--3--|  |--3--|                       
  E   E  E  E  E  E  E  E  E  E  E  E     W                 
---------------------------------------|-------------------|
--2h--3-----------3--------------------|--2----------------|
--2------2-----------------2--------2--|-------------------|
------------2--L-----2--L-----2--L-----|--2----------------|
---------------------------------------|-------------------|
---------------------------------------|-------------------|


  |--3--|  |--3--|  |--3--|  |---3--|    
  E  E  E  E  E  E  E  E  E  E  E   E    
-----------------9----------------------|
--7--L--------------------7-------------|
--------6--------------------------(6)--|
--7--L-----7--L-----7--L-----7--L-------|
----------------------------------------|
----------------------------------------|


  |--3--|  |--3--|  |--3--|  |---3--|    
  E  E  E  E  E  E  E  E  E  E  E   E    
-----------------7----------------------|
--5--L--------------------5-------------|
--------6--------------------------(6)--|
--6--L-----6--L-----6--L-----6--L-------|
----------------------------------------|
----------------------------------------|


                             >           
  |--3--|  |--3--|  |--3--|  |---3---|   
  E  E  E  E  E  E  E  E  E  E   E   E   
-----------------5-----------5s--7p--0--|
--3--L--------------------3-------------|
--------4-------------------------------|
--4--L-----4--L-----4--L----------------|
----------------------------------------|
----------------------------------------|


  |--3--|  |--3--|  |--3--|  |---3--|    
  E  E  E  E  E  E  E  E  E  E  E   E    
----------------------------------------|
--2--L-----------2----------------------|
--------2-----------------2--------(2)--|
--2--L-----2--L-----2--L-----2--L-------|
----------------------------------------|
----------------------------------------|


  |--3--|  |--3--|  |--3--|  |---3--|    
  E  E  E  E  E  E  E  E  E  E  E   E    
-----------------9----------------------|
-----------7--------------7-------------|
--------6--------------------------(6)--|
--7--L-----7--L-----7--L-----7--L-------|
----------------------------------------|
----------------------------------------|


  |--3--|  |--3--|  |--3--|  |---3--|    
  E  E  E  E  E  E  E  E  E  E  E   E    
-----------------7----------------------|
-----------5--------------5-------------|
--------6--------------------------(6)--|
--6--L-----6--L-----6--L-----6--L-------|
----------------------------------------|
----------------------------------------|


        ^                      >           
  |--3--|  |--3--|  |---3--|   |---3---|   
  E  E  E  E  E  E  E  E   E   E   E   E   
-------------------------------5s--7p--0--|
--------3--3--L-----3--L------------------|
--------4---------------------------------|
--4--L--4--------4--------(4)-------------|
------------------------------------------|
------------------------------------------|


  |--3--|  |--3--|  |--3--|  |--3--|     |--3--|  |--3--|  |--3--|  |---3--|    
  E  E  E  E  E  E  E  E  E  E  E  E     E  E  E  E  E  E  E  E  E  E  E   E    
--------------------------------------|----------------------------------------|
--2--L-----------2-----------------2--|-----------------2----------------------|
--------2-----------------2-----------|--------2-----------------2--------(2)--|
--2--L-----2--L-----2--L-----2--L-----|--2--L-----2--L-----2--L-----2--L-------|
--------------------------------------|----------------------------------------|
--------------------------------------|----------------------------------------|


  |--3--|  |--3--|  |--3--|  |---3--|    
  E  E  E  E  E  E  E  E  E  E  E   E    
-----------------9----------------------|
-----------7--------------7-------------|
--------6--------------------------(6)--|
--7--L-----7--L-----7--L-----7--L-------|
----------------------------------------|
----------------------------------------|


  |--3--|  |--3--|  |--3--|  |---3--|    
  E  E  E  E  E  E  E  E  E  E  E   E    
-----------------7----------------------|
-----------5--------------5-------------|
--------6--------------------------(6)--|
--6--L-----6--L-----6--L-----6--L-------|
----------------------------------------|
----------------------------------------|


  |--3--|  |--3--|  |--3--|  |---3--|    
  E  E  E  E  E  E  E  E  E  E  E   E    
-----------------5----------------------|
-----------3--------------3-------------|
--------4--------------------------(4)--|
--4--L-----4--L-----4--L-----4--L-------|
----------------------------------------|
----------------------------------------|


  |--3--|  |--3--|  |--3--|  |---3--|    
  E  E  E  E  E  E  E  E  E  E  E   E    
----------------------------------------|
--2--L-----------2----------------------|
--------2-----------------2--------(2)--|
--2--L-----2--L-----2--L-----2--L-------|
----------------------------------------|
----------------------------------------|


  |--3--|  |--3--|  |--3--|  |---3--|    
  E  E  E  E  E  E  E  E  E  E  E   E    
-----------------9----------------------|
-----------7--------------7-------------|
--------6--------------------------(6)--|
--7--L-----7--L-----7--L-----7--L-------|
----------------------------------------|
----------------------------------------|


  |--3--|  |--3--|  |--3--|  |---3--|    
  E  E  E  E  E  E  E  E  E  E  E   E    
-----------------7----------------------|
-----------5--------------5-------------|
--------6--------------------------(6)--|
--6--L-----6--L-----6--L-----6--L-------|
----------------------------------------|
----------------------------------------|


  |--3--|  |--3--|  |--3--|  |---3--|    
  E  E  E  E  E  E  E  E  E  E  E   E    
-----------------5----------------------|
-----------3--------------3-------------|
--------4--------------------------(4)--|
--4--L-----4--L-----4--L-----4--L-------|
----------------------------------------|
----------------------------------------|


  |--3--|  |--3--|  |--3--|  |---3--|    
  E  E  E  E  E  E  E  E  E  E  E   E    
----------------------------------------|
--2--L-----------2----------------------|
--------2-----------------2--------(2)--|
--2--L-----2--L-----2--L-----2--L-------|
----------------------------------------|
----------------------------------------|


  |---3--|  |--3--|  |--3--|  |--3--|   
  E   E  E  E  E  E  E  E  E  E  E  E   
---------------------------------------|
--2h--3-----------3--------------------|
--2------2-----------------2--------2--|
------------2--L-----2--L-----2--L-----|
---------------------------------------|
---------------------------------------|


  |--3--|  |--3--|  |--3--|  |---3--|    
  E  E  E  E  E  E  E  E  E  E  E   E    
----------------------------------------|
--2--L-----------2----------------------|
--------2-----------------2--------(2)--|
--2--L-----2--L-----2--L-----2--L-------|
----------------------------------------|
----------------------------------------|


  |---3--|  |--3--|  |--3--|  |--3--|                       
  E   E  E  E  E  E  E  E  E  E  E  E     W                 
---------------------------------------|-------------------|
--2h--3-----------3--------------------|--2----------------|
--2------2-----------------2--------2--|-------------------|
------------2--L-----2--L-----2--L-----|--2----------------|
---------------------------------------|-------------------|
---------------------------------------|-------------------|


  |--3--|  |--3--|  |--3--|  |---3--|    
  E  E  E  E  E  E  E  E  E  E  E   E    
-----------------9----------------------|
--7--L--------------------7-------------|
--------6--------------------------(6)--|
--7--L-----7--L-----7--L-----7--L-------|
----------------------------------------|
----------------------------------------|


  |--3--|  |--3--|  |--3--|  |---3--|    
  E  E  E  E  E  E  E  E  E  E  E   E    
-----------------7----------------------|
--5--L--------------------5-------------|
--------6--------------------------(6)--|
--6--L-----6--L-----6--L-----6--L-------|
----------------------------------------|
----------------------------------------|


                             >           
  |--3--|  |--3--|  |--3--|  |---3---|   
  E  E  E  E  E  E  E  E  E  E   E   E   
-----------------5-----------5s--7p--0--|
--3--L--------------------3-------------|
--------4-------------------------------|
--4--L-----4--L-----4--L----------------|
----------------------------------------|
----------------------------------------|


  |--3--|  |--3--|  |--3--|  |---3--|    
  E  E  E  E  E  E  E  E  E  E  E   E    
----------------------------------------|
--2--L-----------2----------------------|
--------2-----------------2--------(2)--|
--2--L-----2--L-----2--L-----2--L-------|
----------------------------------------|
----------------------------------------|


  |--3--|  |--3--|  |--3--|  |---3--|    
  E  E  E  E  E  E  E  E  E  E  E   E    
-----------------9----------------------|
-----------7--------------7-------------|
--------6--------------------------(6)--|
--7--L-----7--L-----7--L-----7--L-------|
----------------------------------------|
----------------------------------------|


  |--3--|  |--3--|  |--3--|  |---3--|    
  E  E  E  E  E  E  E  E  E  E  E   E    
-----------------7----------------------|
-----------5--------------5-------------|
--------6--------------------------(6)--|
--6--L-----6--L-----6--L-----6--L-------|
----------------------------------------|
----------------------------------------|


        ^                      >           
  |--3--|  |--3--|  |---3--|   |---3---|   
  E  E  E  E  E  E  E  E   E   E   E   E   
-------------------------------5s--7p--0--|
--------3--3--L-----3--L------------------|
--------4---------------------------------|
--4--L--4--------4--------(4)-------------|
------------------------------------------|
------------------------------------------|


  |--3--|  |--3--|  |--3--|  |--3--|     |--3--|  |--3--|  |--3--|  |---3--|    
  E  E  E  E  E  E  E  E  E  E  E  E     E  E  E  E  E  E  E  E  E  E  E   E    
--------------------------------------|----------------------------------------|
--2--L-----------2-----------------2--|-----------------2----------------------|
--------2-----------------2-----------|--------2-----------------2--------(2)--|
--2--L-----2--L-----2--L-----2--L-----|--2--L-----2--L-----2--L-----2--L-------|
--------------------------------------|----------------------------------------|
--------------------------------------|----------------------------------------|


  |--3--|  |--3--|  |--3--|  |---3--|    
  E  E  E  E  E  E  E  E  E  E  E   E    
-----------------9----------------------|
-----------7--------------7-------------|
--------6--------------------------(6)--|
--7--L-----7--L-----7--L-----7--L-------|
----------------------------------------|
----------------------------------------|


  |--3--|  |--3--|  |--3--|  |---3--|    
  E  E  E  E  E  E  E  E  E  E  E   E    
-----------------7----------------------|
-----------5--------------5-------------|
--------6--------------------------(6)--|
--6--L-----6--L-----6--L-----6--L-------|
----------------------------------------|
----------------------------------------|


  |--3--|  |--3--|  |--3--|  |---3--|    
  E  E  E  E  E  E  E  E  E  E  E   E    
-----------------5----------------------|
-----------3--------------3-------------|
--------4--------------------------(4)--|
--4--L-----4--L-----4--L-----4--L-------|
----------------------------------------|
----------------------------------------|


  |--3--|  |--3--|  |--3--|  |---3--|    
  E  E  E  E  E  E  E  E  E  E  E   E    
----------------------------------------|
--2--L-----------2----------------------|
--------2-----------------2--------(2)--|
--2--L-----2--L-----2--L-----2--L-------|
----------------------------------------|
----------------------------------------|


  |--3--|  |--3--|  |--3--|  |---3--|    
  E  E  E  E  E  E  E  E  E  E  E   E    
-----------------9----------------------|
-----------7--------------7-------------|
--------6--------------------------(6)--|
--7--L-----7--L-----7--L-----7--L-------|
----------------------------------------|
----------------------------------------|


  |--3--|  |--3--|  |--3--|  |---3--|    
  E  E  E  E  E  E  E  E  E  E  E   E    
-----------------7----------------------|
-----------5--------------5-------------|
--------6--------------------------(6)--|
--6--L-----6--L-----6--L-----6--L-------|
----------------------------------------|
----------------------------------------|


  |--3--|  |--3--|  |--3--|  |---3--|    
  E  E  E  E  E  E  E  E  E  E  E   E    
-----------------5----------------------|
-----------3--------------3-------------|
--------4--------------------------(4)--|
--4--L-----4--L-----4--L-----4--L-------|
----------------------------------------|
----------------------------------------|


  |--3--|  |--3--|  |--3--|  |---3--|    
  E  E  E  E  E  E  E  E  E  E  E   E    
----------------------------------------|
--2--L-----------2----------------------|
--------2-----------------2--------(2)--|
--2--L-----2--L-----2--L-----2--L-------|
----------------------------------------|
----------------------------------------|


  |---3--|  |--3--|  |--3--|  |--3--|   
  E   E  E  E  E  E  E  E  E  E  E  E   
---------------------------------------|
--2h--3-----------3--------------------|
--2------2-----------------2--------2--|
------------2--L-----2--L-----2--L-----|
---------------------------------------|
---------------------------------------|


  |--3--|  |--3--|  |--3--|  |---3--|    
  E  E  E  E  E  E  E  E  E  E  E   E    
----------------------------------------|
--2--L-----------2----------------------|
--------2-----------------2--------(2)--|
--2--L-----2--L-----2--L-----2--L-------|
----------------------------------------|
----------------------------------------|


  |---3--|  |--3--|  |--3--|  |--3--|   
  E   E  E  E  E  E  E  E  E  E  E  E   
---------------------------------------|
--2h--3-----------3--------------------|
--2------2-----------------2--------2--|
------------2--L-----2--L-----2--L-----|
---------------------------------------|
---------------------------------------|


  |--3--|  |--3--|  |--3--|  |---3--|    
  E  E  E  E  E  E  E  E  E  E  E   E    
----------------------------------------|
--2--L-----------2----------------------|
--------2-----------------2--------(2)--|
--2--L-----2--L-----2--L-----2--L-------|
----------------------------------------|
----------------------------------------|


  |---3--|  |--3--|  |--3--|  |--3--|   
  E   E  E  E  E  E  E  E  E  E  E  E   
---------------------------------------|
--2h--3-----------3--------------------|
--2------2-----------------2--------2--|
------------2--L-----2--L-----2--L-----|
---------------------------------------|
---------------------------------------|


  |--3--|  |--3--|  |--3--|  |---3--|    
  E  E  E  E  E  E  E  E  E  E  E   E    
----------------------------------------|
--2--L-----------2----------------------|
--------2-----------------2--------(2)--|
--2--L-----2--L-----2--L-----2--L-------|
----------------------------------------|
----------------------------------------|


  |---3--|  |--3--|  |--3--|  |--3--|                        
  E   E  E  E  E  E  E  E  E  E  E  E     W                  
---------------------------------------|-------------------||
--2h--3-----------3--------------------|--2----------------||
--2------2-----------------2--------2--|-------------------||
------------2--L-----2--L-----2--L-----|--2----------------||
---------------------------------------|-------------------||
---------------------------------------|-------------------||

Suggest correction
What's this?
You can suggest a correction to this tab. Community and Mods will review your correction and vote to approve or reject it.
comments
We did not receive enough feedback on this tab! Please rate:
print report bad tab
1 2 3 4 5
guest
You may want to rate the tab now too:
select rating
Please do not post tabs as comments. Select "correction" instead!