Oops, an error
Loading. Please wait.

Canela Chords

8,759 views 6 this week
no commentswrite comment
1 2 3 4 5
excellent!
x 5
add to favorites
launch autoscroll
font size
0
reset
transpose
0
reset
simplify chords
display chords
guitar tuner
Autoscroll
slow
fast
+/-
esc
set tempo
stop
Help us to improve Ultimate-Guitar.com Take our survey!
×
Contributor
Difficulty
novice
Hey, this is my guitar version of the piano based track Canela from Cripple Crow. I
the chords out on piano cos I couldn't find a tab for it, personally I just kinda play
what i've tabbed fingerpicking around the chords. i've written out the actual chords at 
bottom so you can play it how you want as the song has quite a loose feel.

-------------------------------------------------------------------------------
                             CANELA - Davendra Banhart
-------------------------------------------------------------------------------
Tabbed by: Si
Email: frostylasnowman@hotmail.co.uk

Tuning: Standard

Cmaj           Am

e|-0----3----------------------------------------------------------------------|
B|-1-1--1-1----1-1-------------------------------------------------------------|
G|-------------2-2-------------------------------------------------------------|
D|-----------------------------------------------------------------------------|
A|-3-----------0-0-------------------------------------------------------------|
E|-----------------------------------------------------------------------------|


F         G               C    C/B   Am
Don't the flowers at your feet smell sweet
        F           G         C
Well it sure smells sweet to me

Back to C Am

end on C. Easy peasy lemon squeezy!

The 'C/B' chord is

e|-------|
B|-1-----|
G|-0-----|
D|-x-----|
A|-2-----|
E|-------|
comments
print report bad tab
I want to post or [tab]
guest
You may want to rate the tab now too:
select rating
Please do not post tabs as comments. Select "correction" instead!