Oops, an error
Loading. Please wait.

Canela Tab

1,747 views 3 this week
no commentswrite comment
1 2 3 4 5
3 more votes to show rating
add to favorites
launch autoscroll
font size
0
reset
how to read this tab
guitar tuner
Autoscroll
slow
fast
+/-
esc
set tempo
stop
Help us to improve Ultimate-Guitar.com Take our survey!
×
Author
Standard Tuning

He plays the intro and verse slightly different each time.

This is just a basic way to play it.

Also, in the verse, I included lyrics to give you an idea of the timing.

Intro:

e ------------------------------------------------------|
B ---------8-------(5)(5)-------------8------(5)(5)-----|
G ---------9--------5--5----5---------9-------5--5----5-|
D -----10-----10----7--7--7-------10-----10---7--7--7---|
A ------------------------------------------------------|
E ---8--------------5--5--------8-------------5--5------|

Play the whole intro 2X at first, and once in between verses.


Verse:

e ---------------------------------------------------------------|
B -------------------------------------------5----3----------1---|
G ------9-------------7----------------------5----4----------2---|
D -----10-------------9----------------------7----5----------3---|
A ---------------------------------------------------------------|
E --8--------------7-----------------------5----3-----1----------|

 Don't       the flowers         at your feet smell sweet...


Verse (continued):

e ---------------------------------------|
B -----------------8------------------3--|
G -----------------9------------------4--|
D --------------10------------------5----|           (Back to Intro)
A ---------------------------------------|
E--------------8-------------------3-----|

...well they sure           smell sweet         to me


It repeats this cycle throughout the whole song.
End on the 8th fret C chord from the Intro.

Enjoy.
Suggest correction
Give kudos to tab author, rate the tab!
1 2 3 4 5
comments
print report bad tab
guest
You may want to rate the tab now too:
select rating
Wanna post a correction for this tab? Suggest correction