Oops, an error
Loading. Please wait.

Carmensita tab

version 2
version 2

Whole song

  • This tab is based of https://youtu.be/Dc49TymHhoM.
253 views 9 this week
no commentswrite comment
1 2 3 4 5
3 more votes to show rating
add to favorites
×
Save as Personal and add changes to this tab that will be seen only by you. Learn more ›
×
You can save this tab as Personal to edit and correct it or add notes. All changes will be seen only by you. Learn more »
launch autoscroll
font size
0
reset
how to read this tab
guitar tuner
edit
Autoscroll
slow
fast
+/-
esc
set tempo
stop
Author
Difficulty
This is a version of the song played by Ivan Morales Martinez in this video https://youtu.be/Dc49TymHhoM .
All credit goes to him, I just decided to tab it out.

Devendra always does a Solo after the second chorus. See https://youtu.be/LQRx3zsIYb4 for a really nice 
example. However I'm not good enough to add this here. Maybey someone else comes up with something or even 
better can do a Tab of the solo above...

The Chords used are Am, Bm and Em/B. Grab Am and Bm in the Verse with your four fingers instead of a bar.
The beat is in 4/4 where in every bar exept for the two in the outro the first note/chord has a full measure
and every other one a half one. So the progression is like this:

  Am      Bm        Em/B              Am      Bm        Em/B
| x   x x x x x x | x   x x x x x x | x   x x x x x x | x   x x x x x x |  ...
  1   2   3   4     1   2   3   4     1   2   3   4     1   2   3   4

The muting of the B(7th on E-string) in the Verse can simply be done by releasing the string when playing 
the next note. I think he might be using a flamenco guitar in the video. If the slapping doesn't sound good
on your guitar you can try to slap the upper two bass strings instead of the lower four strings.

Have fun!


             e|------------------------|------------------------|--------------------------|
   4         B|------------------------|------------------------|--------------------------|
      /      G|------------------------|------------------------|--------------------------|
     /       D|------------------------|------------------------|--------------------------|
        4    A|------------------------|------------------------|--------------------------|
             E|------------------------|------------------------|---------------------12\5-|
 
              |                        |                        |   Ay tu pri-mo co - lo - |

                                           ∆                                                ∆
|----5-------------7------|----7--------7--7-----|-----5------------7------|-----7-------7--7------|
|----5-------------7------|----8--------8--8-----|-----5------------7------|-----8-------8--8------|
|----5----------7---------|----9--------9--9-----|-----5---------7---------|-----9-------9--9------|
|-------------------------|----------------------|-------------------------|-----------------------|
|-------------------------|-7-------7------------|-------------------------|-7--------7------------|
|-------5---5/7--------7--|-m-----7-m---------7--|-5------5--5/7--------7--|-m-----7--m--------7---|

|-ra-do Con bar-ba cam-bu-|-ra-da Y lle-no de ba-|-lle-na In-cli-na-dos al | sol   Tu ra-yo de luz |  

                                            ∆                                                     ∆
|----5------------7--------|----7--------7--7------|----5---------------7-----|-----7----------7--7-----|
|----5------------7--------|----8--------8--8------|----5---------------7-----|-----8----------8--8-----|
|----5---------7-----------|----9--------9--9------|----5------------7--------|-----9----------9--9-----|
|--------------------------|-----------------------|--------------------------|-------------------------|
|--------------------------|-7--------7------------|--------------------------|-7---------7-------------|
|-5-----5--5/7---------7---|-m-----7--m---------7--|-5------5----5/7-------7--|-m-----7---m----------7--|

| ro-ja Be-san-do nues-tra | bo-ca El be-so que te | so-pla tsch Hue-le al-co-|-hol   Tus tres oj-os lu-|
                                        
                                                 ∆                                                    ∆    
|----5--------------7-------|------7--------7----7-------|----5--------------7-----|-----7---------7--7-----|
|----5--------------7-------|------8--------8----8-------|----5--------------7-----|-----8---------8--8-----|
|----5----------7-----------|------9--------9----9-------|----5-----------7--------|-----9---------9--9-----|
|---------------------------|----------------------------|-------------------------|------------------------|
|---------------------------|-7----------7---------------|-------------------------|-7---------7------------|
|-5------5-5/7---------7----|-m--------7-m------------7--|-5------5---5/7-------7--|-m------7--m---------7--|

|-na-res   Ex - tra-te-rres-|-tria-les   En-tran-quan-do | sa-les Por e - so no se | ven Ay tu bar-ba co-lo-|

                                            ∆                                             ∆
|----5-------------7----|-----7----------7--7------|----5------------7-------|----7-----7-7-----|
|----5-------------7----|-----8----------8--8------|----5------------7-------|----8-----8-8-----|
|----5----------7-------|-----9----------9--9------|----5---------7----------|----9-----9-9-----|
|-----------------------|--------------------------|-------------------------|------------7-----|
|-----------------------|-7----------7-------------|-------------------------|-7------7---7-----|
|-5-----5---5/7------7--|-m------7---m----------7--|-5-----5-5/7--------7----|-m----7-m---------|

|-ra-da Tra-vie-sa y re-|-bel-de Mea-fei-to con es-|-pa-da   Pe - ro de-vuel-|-ve         La la |  

  ∆    v ∆ v    v    ∆    v ∆ v    v    ∆    v ∆ v    v    ∆    
|-5--s-5-7-7-s--7--|-7--s-7-7-7-s--7--|-5--s-5-7-7-s--7--|-7--s-------------------|
|-5--s-5-7-7-s--7--|-8--s-8-8-8-s--8--|-5--s-5-7-7-s--7--|-8--s-------------------|
|-5--s-5-7-7-s--7--|-9--s-9-9-9-s--9--|-5--s-5-7-7-s--7--|-9--s-------------------|
|-7--s-7-9-9-s--9--|-9--s-9-9-9-s--9--|-7--s-7-9-9-s--9--|-9--s-------------------|
|-7----7-9-9----9--|-7----7-7-7----7--|-7----7-9-9----9--|-7----------------------|
|-5----5-7-7----7--|-7----7-7-7----7--|-5----5-7-7----7--|-7----------------------|
| la         La la | la         La la | la         La la | la Si la no-che te per-|

                                           ∆                                                ∆
|----5-------------7----|---7----------7---7-------|-----5---------7-----|----7----------7--7-----|
|----5-------------7----|---8----------8---8-------|-----5---------7-----|----8----------8--8-----|
|----5----------7-------|---9----------9---9-------|-----5-------7-------|----9----------9--9-----|
|-----------------------|--------------------------|---------------------|------------------------|
|-----------------------|-7-------7----------------|---------------------|-7---------7------------|
|-5------5--5/7-------7-|-m-----7-m-------------7--|-5-----5-5/7------7--|-m-----7---m---------7--|

|-si-gue En-tre-ga-te a | e-lla O dile que tien do-|-lor           de ca-|-be-za Som-bri-ta de re-|  

                                            ∆                                            ∆
|-----5------------7-----|------7--------7--7-----|----5-----------7-----|------7------7-7-----|
|-----5------------7-----|------8--------8--8-----|----5-----------7-----|------8------8-8-----|
|-----5---------7--------|------9--------9--9-----|----5--------7--------|------9------9-9-----|
|------------------------|------------------------|----------------------|---------------7-----|
|------------------------|-7----------7-----------|----------------------|-7---------7---7-----|
|-5------5-5/7--------7--|-m-------7--m--------7--|-5----5-5/7--------7--|-m-------7-m---------|

|-fle-jo   Da - me al-go | tier-no Me co-mo tu am-|-or   Y ca - go el in-|-fier-no       Aa-ay | 

  ∆       v  ∆  v     v    ∆       v  ∆  v     v    ∆       v  ∆  v    v     ∆    v   ∆  v   v
|-5----s--5--7--7--s--7--|-7----s--7--7--7--s--7--|-5----s--5--7--7--s-7---|-7--s-7---7--7-s-7---|
|-5----s--5--7--7--s--7--|-8----s--8--8--8--s--8--|-5----s--5--7--7--s-7---|-8--s-8---8--8-s-8---|
|-5----s--5--7--7--s--7--|-9----s--9--9--9--s--9--|-5----s--5--7--7--s-7---|-9--s-9---9--9-s-9---|
|-7----s--7--9--9--s--9--|-9----s--9--9--9--s--9--|-7----s--7--9--9--s-9---|-9--s-9---9--9-s-9---|
|-7-------7--9--9-----9--|-7-------7--7--7-----7--|-7-------7--9--9----9---|-7----7---7--7---7---|
|-5-------5--7--7-----7--|-7-------7--7--7-----7--|-5-------5--7--7----7---|-7----7---7--7---7---|

| ohoh oh oh oh oh Aa-ay | ohoh oh oh oh oh Aa-ay | ohoh oh oh oh oh   Ber-|-no   Ber-no-o   Ber-|

  ∆    v   ∆  v   v     ∆     v  ∆ v   v     ∆    v   ∆  v    v    ∆
|-5--s-5---7--7-s-7---|-7--s--7--7-7-s-7---|-5--s-5---7--7-s--7--|-7------------------------|
|-5--s-5---7--7-s-7---|-8--s--8--8-8-s-8---|-5--s-5---7--7-s--7--|-8------------------------|
|-5--s-5---7--7-s-7---|-9--s--9--9-9-s-9---|-5--s-5---7--7-s--7--|-9------------------------|
|-7--s-7---9--9-s-9---|-9--s--9--9-9-s-9---|-7--s-7---9--9-s--9--|-9------------------------|
|-7----7---9--9---9---|-7-----7--7-7---7---|-7----7---9--9----9--|-7------------------------|
|-5----5---7--7---7---|-7-----7--7-7---7---|-5----5---7--7----7--|-7-------------------12\5-|

|-ne   Ber-ne-e   Ber-|-ne oh oh       Ber-|-ne   Ber-ne-e oh oh |   Ay tus o-jos co - lo - |

                                         ∆                                          ∆
|----5-----------7------|----7--------7--7-----|-----5----------7----|-----7------7-7------|
|----5-----------7------|----8--------8--8-----|-----5----------7----|-----8------8-8------|
|----5---------7--------|----9--------9--9-----|-----5--------7------|-----9------9-9------|
|-----------------------|----------------------|---------------------|---------------------|
|-----------------------|-7--------7-----------|---------------------|-7-------7-----------|
|--------5-5/7------7---|-m------7-m---------7-|-5------5-5/7-----7--|-m-----7-m--------7--|

|-ra-dos A-zul a-na-ran-|-ja-dos A-ma-ri-llo y | ver-de         y ma-|-ron     Mi a-mor en-| 

                                       ∆                                                ∆
|------5-----------7-----|-----7-----7-7-----|------5-----------7------|-----7------7---7----|
|------5-----------7-----|-----8-----8-8-----|------5-----------7------|-----8------8---8----|
|------5--------7--------|-----9-----9-9-----|------5---------7--------|-----9------9---9----|
|------------------------|-------------------|-------------------------|----------------7----|
|------------------------|-7-------7---------|-------------------------|-7-------7------7----|
|-5-------5-5/7-------7--|-m-----7-m------7--|-5--------5-5/7-------7--|-m-----7-m-----------|

|-vuel-to   en  tu co-ra-|-zon         No lo | suel-tes         por fa-|-vor     So-mos e-le-| 

  ∆       v   ∆    v      v    ∆       v  ∆   v                                               ∆
|-5---s---5---7----7---s--7--|-7---s---7--7---7--s----|--------5----------7-----|-----7-----7-7-----|
|-5---s---5---7----7---s--7--|-8---s---8--8---8--s----|--------5----------7-----|-----8-----8-8-----|
|-5---s---5---7----7---s--7--|-9---s---9--9---9--s----|--------5--------7-------|-----9-----9-9-----|
|-7---s---7---9----9---s--9--|-9---s---9--9---9--s----|-------------------------|-------------------|
|-7-------7---9----9------9--|-7-------7--7---7-------|-------------------------|-7-------7---------|
|-5-------5---7----7------7--|-7-------7--7---7-------|-5---------5-5/7------7--|-m-----7-m------7--|

|-fan-tes ser-pien-tes se-me-|-jan-tes To-man-do a-gua| ardien-te         En el | sol         En el |

                                    ∆                                         ∆
|-----5---------7-----|-----7-----7-7-----|-----5---------7-----|-----7-----7-7-----|
|-----5---------7-----|-----8-----8-8-----|-----5---------7-----|-----8-----8-8-----|
|-----5-------7-------|-----9-----9-9-----|-----5-------7-------|-----9-----9-9-----|
|---------------------|-------------------|---------------------|-------------7-----|
|---------------------|-7-------7---------|---------------------|-7-------7---7-----|
|-5-----5-5/7------7--|-m-----7-m------7--|-5-----5-5/7------7--|-m-----7-m---------|

| sol           En el | sol         En el | sol           En el | sol         La la |

  ∆    v ∆ v    v    ∆    v ∆ v    v    ∆    v ∆ v    v    ∆
|-5--s-5-7-7-s--7--|-7--s-7-7-7-s--7--|-5--s-5-7-7-s--7--|-7------------7-|
|-5--s-5-7-7-s--7--|-8--s-8-8-8-s--8--|-5--s-5-7-7-s--7--|-8----------8---|
|-5--s-5-7-7-s--7--|-9--s-9-9-9-s--9--|-5--s-5-7-7-s--7--|-9--------9-----|
|-7--s-7-9-9-s--9--|-9--s-9-9-9-s--9--|-7--s-7-9-9-s--9--|-9--------------|
|-7----7-9-9----9--|-7----7-7-7----7--|-7----7-9-9----9--|-7--------------|
|-5----5-7-7----7--|-7----7-7-7----7--|-5----5-7-7----7--|-7--------------|

| la         La la | la         La la | la         La la | la             |


|-5-------------7-|-------7-----12---|
|---5---5-----7---|-----8-------12---|
|-----5-----7-----|---9---------12---|
|-----------------|------------------|
|-----------------|-7----------------|
|-5-------7-------|------------------|

|                 |                  |

 
*********************************************************************************************************

Some explanation for the symbols:
/ : Slide up
\ : Slide down
∆ : Strum down (E to e)
v : Strum up (e to E)
m : Mute the previous note
s : Slap the string with your right hand above the sound hole
Suggest correction
Creating personal tab
Creating personal tab
You can edit any tab online and save it as your Personal.

You can edit, replace or remove any tab part or add personal notes – all changes will be seen only by you.

Personal tabs can be accessed anytime from any device, even offline.
Learn more »
Give kudos to tab author, rate the tab!
1 2 3 4 5
comments
print report bad tab
guest
You may want to rate the tab now too:
select rating
Wanna post a correction for this tab? Suggest correction