Oops, an error
Loading. Please wait.

Insect Eyes Tab

version 2
version 2

Whole song

1,825 views 9 this week
2 commentsread comments
1 2 3 4 5
1 last vote to show rating
add to favorites
launch autoscroll
font size
0
reset
how to read this tab
guitar tuner
Autoscroll
slow
fast
+/-
esc
set tempo
stop
Help us to improve Ultimate-Guitar.com Take our survey!
×
Author
Difficulty
advanced
   Insect Eyes- D. Banhart
Tabbed by: Dsever73
Email: Chefboy73@yahoo.com

Standard Tuning: Note: A guitar pick is NOT used for this song...

       (4X)                      (Strum down, up, down)
e|---------------|---------------|---------0------(0)------------------(0)--|
B|---------------|---------------|-------0---0-----0--------------------0---|
G|---------------|--b5-----------|-----5-------5---5--------2---4---2---2---|
D|---2-2-2-5---7-|-----7-5-------|---2------------------2h5---5---5---5-2---|
A|-0---------0---|---------7-5-0-|-0-------------0----0---------0------(0)--|
E|---------------|---------------|------------------------------------------|         (Basic)

  (Uptempo)
e|-----------3-3-2-----------------|
B|---------------------------6-6-5-|
G|------5-2-------------5-2--------|Repeat uptempo till end of song w/
D|---------------------------------|some slight variation.
A|-0-0-0-0-0-0-0-0-0-0-0-0-0-0-----|
E|---------------------------------|

Best of luck, and enjoy this is a great spooky song, I mean look what movie it was featured on.
PS. This is my first tab EVER, tell me what you think.

************************************

| /   slide up
| \   slide down
| h   hammer-on
| p   pull-off
| ~   vibrato
| +   harmonic
| x   Mute note
| b   Bend
| pb  Pre-bend
| br  Bend release
| pbr Pre-bend release
| brb Bend release bend

************************************
Suggest correction
Give kudos to tab author, rate the tab!
1 2 3 4 5
comments
print report bad tab
2 comments total.
0 reply
Savage Animal 418 Dec 02, 2010 11:37 AM

I liked the tab! Esp the (Strum up, up, down) part, which sounds better than the other tab's. However, the ending is a lot easier if you just play it in the basic chord, I think it's around Dm. Anyway, it sounds better if you do that because the notes can ring more

Plz tab more Devendra!!

0 reply
oddysee3030 114 Mar 07, 2016 01:47 AM

Hey, so this is a great tab, just wanted to add one thing here, anyone who wants an easier and (imo) much better sounding way to play the part after the (Strum up, up, down) part, try this on for size:

e|---------------------(0)----|
B|-------------0--------0-----|
G|---------2-----2------2-----|
D|----5------5-----5----------|
A|--0----0------------0-------|
E|----------------------------|

Instead of this:
e|------------------(0)--|
B|-------------------0---|
G|-------2---4---2---2---|
D|---2h5---5---5---5-2---|
A|-0---------0------(0)--|
E|-----------------------|

Hope this helps!
Oh, and thanks for tabbing this song, Dsever <3

guest
You may want to rate the tab now too:
select rating
Wanna post a correction for this tab? Suggest correction