Oops, an error
Loading. Please wait.

Lend Me Your Teeth Tab

version 2
version 2

Whole song

476 views 1 this week
no commentswrite comment
1 2 3 4 5
please rate
add to favorites
launch autoscroll
font size
0
reset
how to read this tab
guitar tuner
Autoscroll
slow
fast
+/-
esc
set tempo
stop
Help us to improve Ultimate-Guitar.com Take our survey!
×
|------------------------|
|----1-----1-----1-----1-|
|--2-----2-----2-------2-|
|------------------2-----|
|0-----0-----0-----------|
|------------------------|

It is in triplets and you can just hold the Am chord.

When you get to the wilder part, I suggest muting the D string without releasing the Am 
then playing it normally for the other two strokes:

|------------------------|
|1-1-1-1-1-1-1---1-1---1-|
|2-2-2-2-2-2-2---2-2---2-|
|x-x-x-x-x-x-x---2-2---x-|
|0-0-0-0-0-0-0---0-0---0-|
|------------------------|

I recommend playing this sloppily or maybe putting your own spin on it.  You will never 
it exactly like the song so just have fun with it.  We are talking Devendra here.
Suggest correction
Give kudos to tab author, rate the tab!
1 2 3 4 5
comments
print report bad tab
guest
You may want to rate the tab now too:
select rating
Please do not post tabs as comments. Select "correction" instead!