Oops, an error
Loading. Please wait.

Lover Bass Tab

5,687 views 6 this week
no commentswrite comment
1 2 3 4 5
please rate
add to favorites
launch autoscroll
font size
0
reset
guitar tuner
Tab Pro tools
  • play this tab
  • loop segment
  • change instrument
  • show fretboard
  • metronome
×
Best way to learn
"Lover"
Autoscroll
slow
fast
+/-
esc
set tempo
stop
Difficulty
intermediate
Artist: Devendra Banhart
Song: Lover
Album: Smokey Rolls Down Thunder Mountain
Tabbed by: j3rmz0r
          (j3rmz0r@gmail.com)

Listen to the song to figure how many times they play each part and quit 
bitching.

..(snare)Tat tat tatta

Intro and Verse:
G|----------------------------------------|
D|------5-5-5-----------------------------|
A|--5h7-------7\--------3-3-3-----5-5---5-|
E|---------------3--3h5-------5-3-----5---|

Occasionally, and almost randomly it changes to:
G|---------------------------------------------|
D|------5-5-5------------------------5----5----| (The easy way to do this is
A|--5h7-------7\--------3-3-3-----5h7--5h7-5h7-|  hold the D and G in between
E|---------------3--3h5-------5-3--------------|  the asterisks like a bar
                                  *-----------*   chord)

Intro. to Chorus:
G|------------------|-----------------|
D|------------------|-----3---3---3-5-|
A|------2-2-3-2-3-4-|-5-5---5---5-----|
E|--3-3-------------|-----------------|

Chorus:
G|--------------------------------------|
D|--------------------------------------|
A|------------------3-3-3-0-2-3-5-5-5-5-|
E|--3-3-3-3-5-5-5-5---------------------|

G|--------------|-------------|-------------------4/77-77-|
D|--------------|-------------|---------------------------|
A|--------------|-----------2-|-3-3-3-0-2-3-55-55---------|
E|--3-3-3-0-2-3-|-5-5-5-3-5---|---------------------------|

Bridge:
G|----------------------|
D|--5--5----------------|
A|----5--(5)--3-3-2-0-5-|
E|----------------------|

Final Chorus: (only the very end is different)
G|--------------------------------------|
D|--------------------------------------|
A|------------------3-3-3-0-2-3-5-5-5-5-|
E|--3-3-3-3-5-5-5-5---------------------|

G|--------------|-------------|-----------------------------|
D|--------------|-------------|-----------------------------|
A|--------------|-----------2-|-3-3-3-0-2-3-5-5-5-5-5-5-5-5-|
E|--3-3-3-0-2-3-|-5-5-5-3-5---|-----------------------------|


Ok, so i'm pretty sure thats not 100% perfect, but its at
least 98% perfect. If you have any questions, feel free to
email me and whatnot. 

j3rmz0r@gmail.com
comments
We did not receive enough feedback on this tab! Please rate:
print report bad tab
1 2 3 4 5
I want to post or [tab]
guest
You may want to rate the tab now too:
select rating
Please do not post tabs as comments. Select "correction" instead!