Oops, an error
Loading. Please wait.

Lover Tab

version 1
version 1

Whole song

10,633 views 1 this week
1 commentread comment
1 2 3 4 5
please rate
add to favorites
launch autoscroll
font size
0
reset
how to read this tab
guitar tuner
Autoscroll
slow
fast
+/-
esc
set tempo
stop
Help us to improve Ultimate-Guitar.com Take our survey!
×
Difficulty
novice
“Lover” off Devendra Banhart’s new album Smokey Rolls Down Thunder Canyon.
Standard tuning

Part 1:

|-----------------------------------------------------------------|
|-----------------------------------------------------------------|
|-----------------------------------------------------------------|
|-----------------------------------------------------------------|
|-----5--7--10-10-10-5------------3-3-3----3-5-5----5-------------|
|------------------------3---3-5---------5--------5---------------|
There’s a fill in there somewhere too

Part 2 (when vocals start):

|---------------------------------------|
|---------------------------------------|
|----12----------14----------16---------|
|----12----------14----------16---------|
|----10----------12----------14---------|
|---------------------------------------|
Listen to the song for the rhythm
These three chords make up most of the song
Suggest correction
Give kudos to tab author, rate the tab!
1 2 3 4 5
comments
print report bad tab
1 comment total.
0 reply
chorillos 63 wrote on June 23 2010, 11:57 pm

this is wrong

guest
You may want to rate the tab now too:
select rating
Wanna post a correction for this tab? Suggest correction