Oops, an error
Loading. Please wait.

Lucky Chords

148 views 6 this week
no commentswrite comment
1 2 3 4 5
3 more votes to show rating
add to favorites
launch autoscroll
font size
0
reset
transpose
0
reset
simplify chords
display chords
guitar tuner
Autoscroll
slow
fast
+/-
esc
set tempo
stop
Help us to improve Ultimate-Guitar.com Take our survey!
×
Author
Difficulty
novice
About this tab version
Chords and most guitar riffs. Was this info helpful? Yes No


[Intro]:

CM     Am   x4


[Intro Riff]:

(Come in on Am)
E|--------10--10/12|-12--------------|-12p10--8--7-----|-----------8-----|
B|-12--13----------|-----------------|--------------/10|-8~-----------10-|
G|-----------------|-----------------|-----------------|------5/7--------|
D|-----------------|-----------------|-----------------|-----------------|
A|-----------------|-----------------|-----------------|-----------------|
E|-----------------|-----------------|-----------------|-----------------|



[Verse]:

CM         Am
When I saw you the other day
CM                 Am
And then I saw you later
CM                             Am
Well, I just couldn't help but say
  CM                    Am
Ooh, what I want to say to you



[Chorus Riff]:


E|--12--10---8-----|-7-----8----10---|-8---------------|
B|--13--13---10----|-8-----10---10---|-8---------------|
G|-----------------|-----------------|-9---------------|
D|-----------------|-----------------|-----------------|
A|-----------------|-----------------|-----------------|
E|-----------------|-----------------|-----------------|


[Chorus]:

    FM     GM         CM
But I'm so very, very lucky
   Am
Uh-huh
    FM     GM
But I'm 
FM            GM
so very lucky, baby
    CM         Am
Ooooh


[Verse]:

CM               Am          
Some people want lots of people
CM                Am
Some people don't want none
CM               Am
Me, I don't want lots of people
CM               Am
Me, I don't want none



[Chorus Riff]:


E|--12--10---8-----|-7-----8----10---|-8---------------|
B|--13--13---10----|-8-----10---10---|-8---------------|
G|-----------------|-----------------|-9---------------|
D|-----------------|-----------------|-----------------|
A|-----------------|-----------------|-----------------|
E|-----------------|-----------------|-----------------|


[Chorus]:

       FM     GM         CM
'Cause I'm so very, very lucky
               Am
That's why I'm lucky now
       FM      GM
'Cause I'm 
FM             GM
so very lucky, baby


[Instrumental]:

CM       Am   x4


[Verse]:

                     CM                            Am
'Cause when I'm with you I don't have to dream
                     CM                                    Am
'Cause when I'm with you I don't have to tell no lies
                     CM                               Am
'Cause when I'm with you I don't have to wish
                              CM                            Am
Oh, baby, baby, it's like the sun is setting in your eyes
                              FM                           GM
Oh, baby, baby, I can see the sun is setting in your eyes


[Outro RIff]:


E|---------------------|
B|---------------------|
G|-/9-9-9-9-9-9-9-9p7~-|
D|---------------------|
A|---------------------|
E|---------------------|


[Outro]:

FM                        GM
I know the reason why I'm lucky
FM                        GM
I know the reason why I'm lucky
FM                        GM
I know the reason why I'm lucky
FM                        GM
I know the reason why I'm lucky
CM




Suggest correction
Give kudos to tab author, rate the tab!
1 2 3 4 5
comments
print report bad tab
guest
You may want to rate the tab now too:
select rating
Wanna post a correction for this tab? Suggest correction