Oops, an error
Loading. Please wait.

Pumpkin Seeds Tab

2,878 views 1 this week
no commentswrite comment
1 2 3 4 5
please rate
add to favorites
launch autoscroll
font size
0
reset
how to read this tab
guitar tuner
Tab Pro tools
  • play this tab
  • loop segment
  • change instrument
  • show fretboard
  • metronome
Autoscroll
slow
fast
+/-
esc
set tempo
stop
Difficulty
novice
-------------------------------------------------------------------------------
                             Pumpkin seeds - Devendra Banhart
-------------------------------------------------------------------------------
Tabbed by: alayna
Email: choireyedsummersun@yahoo.com

Tuning:standard ebgdae

he's really just playing around with the c chord the entire time, like in a lot of his
i couldn't figure out the whole thing but it starts like this, and its kinda sloppy when
plays it so don't try to be really exact, just feel it out until you like it. you're 
wanna play it fingerstyle. its actually a lot of fun to play.

     DU           D          DU
                play this twice, but leave off the last three notes on the
                second time. he plays this inbetween verses and stuff too.
e|---00------  |--0----------0----0---0------------------------------|
B|---11------  |--1----------11--1-1-1-1-----------------------------|
G|---00---0--  |--0----0h2-0-00--0-----------------------------------|
D|---22--2-2-  |--2-0h2------22--------------------------------------|
A|-3----3----  |3---------------3------------------------------------|
E|-------------|-----------------------------------------------------|

i can't tell exactly what hes doing during the verses because in some parts i can't
hear it, but its not too different from the second part of the intro up there, so just mess
with c and do whatever, you should be fine.

there's some changes at 1:26. i haven't figured them out. they repeat in another place
two, i think. and there's more changes 2:45. if you figure anything out that i didn't
email me or if you have comments, suggestions, etc. this was my first tab!

| /  slide up
| \  slide down
| h  hammer-on
| p  pull-off
| ~  vibrato
| +  harmonic
| x  Mute note
===============================================================================
comments
We did not receive enough feedback on this tab! Please rate:
print report bad tab
1 2 3 4 5
I want to post or [tab]
guest
You may want to rate the tab now too:
select rating
Please do not post tabs as comments. Select "correction" instead!