Oops, an error
Loading. Please wait.

Seahorse Chords

version 1
version 1

Whole song

Interactive

16,373 views 21 this week
3 commentsread comments
1 2 3 4 5
please rate
add to favorites
launch autoscroll
font size
0
reset
transpose
0
reset
simplify chords
display chords
guitar tuner
Autoscroll
slow
fast
+/-
esc
set tempo
stop
Help us to improve Ultimate-Guitar.com Take our survey!
×
Seahorse

Devendra Banhart

"Brilliant"

INTRO

A maj, Asus4th

PART 1

Amaj               Asus4th          Amaj 
I'm high and I'm happy and I'm free
I've got my whole heart laid out right in front of me

Bmin
And I finally can see

Amaj                      Emaj
The way it's always been

Bmin             Amaj                    Emaj
The need for peace starts from within.

So I laid my posesions to the wind
And i'm done with ever wanting anything

Bmin
But i can die satisfied,

Amaj                      Emaj
No desires do i hide

Bmin
not today, not today

Amaj                                Emaj
nor for the next 1000 lives

TRANSITION;

Fsharp minor, Emaj (X3 and a half)

PART 2

Aminor, Gmaj

I Wanna Be a Little Seahorse

G maj, Aminor.....

Cmaj, Bflat major...

Aminor, G maj....

I Wanna be a little seahorse

I wanna see the little green men,
oooooh sleep with me 
now and then

i wanna see little green men 
now and then...........

oooohh oooooo hhhhhho......

TRANSITION FROM 6/8 TO 8/8.

PART 3

Lead guitar line.... (A minor pentatonic....)

Aminor, G maj, Dmaj........

Well I'm scared of ever being born again......

Guitar Solo

Then back to the Intro for a few bars.

MysteryCharlie
Suggest correction
Give kudos to tab author, rate the tab!
1 2 3 4 5
comments
print report bad tab
3 comments total.
0 reply
childvagabond 90 wrote on September 9 2007, 04:39 pm

i think it's this with capo on 1

+2 reply
aLpH.E 51 wrote on June 2 2008, 04:26 pm

lead guitar line:

e-----------------------------------------------------------
b-----------------------------------------------------------
g-----------------------------------------7b8-5------------- X2
d------7-7p-5-7h-5-7h-5-7h -----5-7-5h-7 ---------7----------
a--------------------------5-7------------------------------
E-----------------------------------------------------------

+2 reply
aLpH.E 51 wrote on June 2 2008, 04:34 pm

intro :

e------------------------------------------------
b-------2-----------3-----------2----------------
g-----2---2-------2---2-------2---2--------------
d---2-------2---4-------4---2-------2------------ etc...
a-0-----------0-----------0-----------0----------
E------------------------------------------------

guest
You may want to rate the tab now too:
select rating
Wanna post a correction for this tab? Suggest correction