Oops, an error
Loading. Please wait.

Seahorse Tab

version 1
version 1

Solo

Whole song

Interactive

4,931 views 3 this week
no commentswrite comment
1 2 3 4 5
x 4
add to favorites
launch autoscroll
font size
0
reset
how to read this tab
guitar tuner
×
Best way to learn
"Seahorse"
Autoscroll
slow
fast
+/-
esc
set tempo
stop
Author
 
                               "Seahorse"
                                   by
                            Devendra Banhart


Someone already tabbed out most of the song. They left
out the solo, which is really quite awesome.
Well, here you go:

"I wanna see you, be the bright night sky..."
e|----------------------------------------------------|
B|----------------------------------------------------|
G|----------------------------------------7/9-7-5-----|
D|-7-7p5-7ph-7p5-7-----5-7-7p5-7p5-7p5-7--------------|
A|-----------------5-7--------------------------------|
E|----------------------------------------------------|

"I wanna see you come back as the light..."
e|----------------------------------------------------|
B|----------------------------------------------------|
G|----------------------------------------7/9-7-5-----|
D|-7-7p5-7ph-7p5-7-----5-7-7p5-7p5-7p5-7--------------|
A|-----------------5-7--------------------------------|
E|----------------------------------------------------|

"I wanna see you be the bright night sky..."
e|----------------------------------------------------|
B|----------------------------------------------------|
G|------------------5----------------------7/9-7-5----|
D|-7-7p5-7ph-7p5-7-------5-7-7p5-7p5-7p5-7------------|
A|--------------------7-------------------------------|
E|----------------------------------------------------|

e|-------------------------------------------------|
B|-------------------------------------------------|
G|--------------7p5--------------------------------|
D|-7-5-7-5-----------7/9-9--------------------5----|
A|---------7-------------------2/5-5-5-3-3-0-5-----|
E|-------------------------------------------------|
                                    
e|-------------------------------------------------------|
B|-------------------------------------------------------|
G|----------------------------5-7-4-5-2/4----7-7-7h9-9---|
D|-----5-5---5-7-7--5-5/7-7------------------------------|
A|-5-7-----7---------------------------------------------|
E|-------------------------------------------------------|                          

e|-------------------8p5-5--8h10-10-10-10--8--------8----------|
B|---------------------------------------------8-10---8--------|
G|-7h9-7-7-5/2-2-----------------------------------------------|
D|-------------------------------------------------------------|
A|-------------------------------------------------------------|
E|-------------------------------------------------------------|

e|------8------8--------------------------------|
B|-8-10---8-10---8-10------------8-10-8-10-8----|
G|--------------------9----9-7-9----------------|
D|----------------------------------------------|
A|----------------------------------------------|
E|----------------------------------------------|

e|--------------------------------------------------|
B|-10-10/13-10-13-10-13/15-15-13-15-15-15/18-17-17--|
G|--------------------------------------------------|
D|--------------------------------------------------|
A|--------------------------------------------------|
E|--------------------------------------------------|

e|--------------------------------------------------|
B|-17h18p17-15-15h17p15-13--13/12--12h13p12-10------|
G|--------------------------------------------------|
D|--------------------------------------------------|
A|--------------------------------------------------|
E|--------------------------------------------------|

e|-----------3--------------------------------------------|
B|-5/8-7-5-3------10-10p8---8-10--------------------------| (The most 
G|------------------------9------9-7----------------------| bad ass part.)
D|-----------------------------------10-10p7----7--10-7---|
A|-------------------------------------------10-----------|
E|--------------------------------------------------------|

e|----------------------------------------------------------------|
B|----------------------------------------------------------------|
G|------------------------------------------------------7/9-7-5---|
D|-5-7-5-7-5-7-5-7--7-7p5-7p5-7p5-7-----5-7-7p5-7p5-7p5-----------|
A|----------------------------------5-7---------------------------|
E|----------------------------------------------------------------|

e|-------------------------------------8-----8-8h10-8------------|
B|-------------3---------3----------10----10----------10---------|
G|-5p2-5p2-2-5---5-2-2-5---5-------------------------------------|
D|---------------------------------------------------------------|
A|---------------------------------------------------------------|
E|---------------------------------------------------------------|

e|----8-8-8h10-10---14/5---7-8-7-7h8-5--------------|
B|-10-----------------------------------------------|
G|--------------------------------------------------|
D|--------------------------------------------------|
A|--------------------------------------------------|
E|--------------------------------------------------|

For the most part its right.
Maybe some minor flaws, but whatever.
Enjoy!

Suggest correction
comments
print report bad tab
guest
You may want to rate the tab now too:
select rating
Wanna post a correction for this tab? Suggest correction