Oops, an error
Loading. Please wait.

The Ballad Of Keenan Milton tab

version 1
version 1

Whole song

  • Full Version for 2-3 acoustics.
196 views 18 this week
no commentswrite comment
1 2 3 4 5
3 more votes to show rating
add to favorites
×
Save as Personal and add changes to this tab that will be seen only by you. Learn more ›
×
You can save this tab as Personal to edit and correct it or add notes. All changes will be seen only by you. Learn more »
launch autoscroll
font size
0
reset
how to read this tab
guitar tuner
edit
Autoscroll
slow
fast
+/-
esc
set tempo
stop
About this tab version
Full Version for 2-3 acoustics. Was this info helpful? Yes No
Devendra Banhart — The Ballad of Keenan Milton
Tuning - Standard
Tabbed by jjhand


[Theme 1]
    6/8 time (0:01 - 1:06)
e|---------------------------------|----------------------------------|
B|---------------------------------|----------------------------------|
G|----------------------------7----|----------------------------7-----|
D|-----5-------5----5----5---------|-----5-------5---------5----------|
A|--7--7----7--7----7----7---------|--7--7----7--7----7----7----------|
E|---------------------------------|----------------------------------|

e|---------------------------------|----------------------------------|
B|---------------------------------|----------------------------------|
G|----------------------------2----|----------------------------2-----|
D|-----4-------4---------4---------|-----4-------4---------4----------|
A|--5--5----5--5----5----5---------|--5--5----5--5----5----5----------|
E|---------------------------------|----------------------------------|


Second Guitar parts:
   (0:07)
e|---------------------------------|----------------------------------|
B|---------------------------------|----------------------------------|
G|--7-6-------------4-----------7--|--6----7----------4---------------|
D|---------------------------------|----------------------------------|
A|---------------------------------|----------------------------------|
E|---------------------------------|----------------------------------|

e|---------------------------------|----------------------------------|------------------|
B|---------------------------------|----------------------------------|------------------|
G|---------------------------------|----------------------------------|------------------|
D|--4---------------7--------------|--4---------------5---------------|-0----------------|
A|---------------------------------|----------------------------------|------------------|
E|---------------------------------|----------------------------------|------------------|

   (0:28)
e|---------------------------------|----------------------------------|
B|---------------------------------|----------------------------------|
G|--7-6-------------4-----------7--|--6----7----6-----4---------------|
D|---------------------------------|-----------------------7----5-----|
A|---------------------------------|----------------------------------|
E|---------------------------------|----------------------------------|

e|---------------------------------|----------------------------------|------------------|
B|---------------------------------|----------------------------------|------------------|
G|---------------------------------|----------------------------------|------------------|
D|--4---------------7--------------|--4---------------5---------------|-0----------------|
A|---------------------------------|----------------------------------|------------------|
E|---------------------------------|----------------------------------|------------------|

   (0:50)
e|---------------------------------|----------------------------------|
B|---------------------------------|----------------------------------|
G|--7-6-------------4-----------7--|--6----7----6----------6----2-----|
D|--9-7-------------4-----------9--|--7----9----7-----4----7----4-----|
A|---------------------------------|----------------------------------|
E|---------------------------------|----------------------------------|

e|---------------------------------|----------------------------------|
B|---------------------------------|----------------------------------|
G|---------------------------------|----------------------------------|
D|--4--------------/7--------------|--4--------------/7---------------|
A|---------------------------------|----------------------------------|
E|---------------------------------|----------------------------------|

e|---------------------------------|----------------------------------|
B|-----------------3---------------|----------------------------------|
G|---------------------------------|------------2---------------------|
D|--0---------0--------------------|--5\4----0--------0---------------|
A|---------------------------------|----------------------------------|
E|---------------------------------|----------------------------------|




[Theme 2]
   (1:07)
   Guitar 1
e|-----------------------------------|------------------------------------|
B|-----------------------------------|------------------------------------|
G|-----------------------------------|------------------------------------|
D|----5-------5----------------------|----5-------5-----------------------|
A|-7--7----7--7----7-----------------|-7--7----7--7----7------------------|
E|-----------------------------------|------------------------------------|
 |
 | Guitar 2
e|-----------------------------------|------------------------------------|
B|-----------------------------------|------------------------------------|
G|--------------------7--6--7--6--7--|-6-------------------7--6--7--6--7--|
D|-----------------------------------|------------------------------------|
A|-----------------------------------|------------------------------------|
E|-----------------------------------|------------------------------------|

   Guitar 1
e|-----------------------------------|---------------------------2--------|
B|-----------------------------------|---------------------------3--------|
G|-----------------------------------|-------------2-------------2--------|
D|--------4-----4--------4-----------|----4---------------4---------------|
A|--------5-----5--------5-----5-----|----5-------------------------------|
E|-5---------5-----5-----------5-----|-5----------------------------------|
 |
 | Guitar 2
e|-----------------------------------|------------------------------------|
B|-----------------------------------|------------------------------------|
G|-6---------------4--------------7--|-6-----7-----6-----4-------------7--|
D|-----------------------------------|------------------------------------|
A|-----------------------------------|------------------------------------|
E|-----------------------------------|------------------------------------|

   Guitar 1
e|-----------------------------------|------------------------------------|
B|-----------------------------------|------------------------------------|
G|-----------------------------------|-----------------4------------------|
D|----5-------5----------------------|----5-------5-----------------------|
A|-7--7----7--7----7-----------------|-7--7----7--7-----------------------|
E|-----------------------------------|------------------------------------|
 |
 | Guitar 2
e|-----------------------------------|------------------------------------|
B|-----------------------------------|-----------------7------------------|
G|--------------------7--6--7--6--7--|-6---------------------7-----6--7---|
D|-----------------------------------|------------------------------------|
A|-----------------------------------|------------------------------------|
E|-----------------------------------|------------------------------------|

   Guitar 1
e|-----------------------------------|------------------------------------|
B|-----------------------------------|------------------------------------|
G|-----------------------------------|------------------------------------|
D|----4-------4----------4-----------|----4-------4-----------4-----------|
A|----5-------5----------5-----------|----5-------5-----------5-----------|
E|-5-------5-------5-----------------|-5-------5--------5-----------------|
 |
 | Guitar 2 
e|-----------------------------------|------------------------------------|
B|-----------------------------------|------------------------------------|
G|-6------------------7--6--7--6--7--|-6----------------------------------|
D|-----------------------------------|------------------------------------|
A|-----------------------------------|------------------------------------|
E|-----------------------------------|------------------------------------|



[Theme 1 Again]

   Guitar 1  (1:28)
e|---------------------------------|----------------------------------|
B|---------------------------------|----------------------------------|
G|----------------------------7----|----------------------------7-----|
D|-----5-------5----5----5---------|-----5-------5---------5----------|
A|--7--7----7--7----7----7---------|--7--7----7--7----7----7----------|
E|---------------------------------|----------------------------------|


e|---------------------------------|----------------------------------|
B|---------------------------------|----------------------------------|
G|----------------------------2----|----------------------------------|
D|-----4-------4---------4---------|-----4-------4---------4----------|
A|--5--5----5--5----5----5---------|--5--5----5--5----5----5----5-----|
E|---------------------------------|----------------------------------|
 |
 | Guitar 2 
e|---------------------------------|---------------------------------|
B|-(7)-----------------------------|---------------------------------|  () note is 
G|--6---------------4----------7---|--6----7----6----4----6----4-----|  additional overdub
D|---------------------------------|---------------------------------|
A|---------------------------------|---------------------------------|
E|---------------------------------|---------------------------------|

   Guitar 1
e|---------------------------------|----------------------------------|
B|---------------------------------|----------------------------------|
G|----------------------------7----|----------------------------7-----|
D|-----5-------5----5----5---------|-----5-------5---------5----------|
A|--7--7----7--7----7----7---------|--7--7----7--7----7----7----------|
E|---------------------------------|----------------------------------|
 |
 | Guitar 2 
e|---------------------------------|----------------------------------|
B|---------------------------------|----------------------------------|
G|---------------------------------|----------------------------------|
D|--4---------5-----7--------------|--4---------------7---------------|
A|---------------------------------|----------------------------------|
E|---------------------------------|----------------------------------|

   Guitar 1
e|---------------------------------|----------------------------------|
B|---------------------------------|----------------------------------|
G|----------------------------2----|----------------------------2-----|
D|--4----4-----4---------4---------|-------4-----4---------4----------|
A|--5-------5-------5----5---------|--5-------5-------5----5----------|
E|---------------------------------|----------------------------------|
 |
 | Guitar 2 
e|--2------------------------------|----------------------------------|
B|--3---------------3--------------|----------------------------------|
G|--2-------------------------2----|----------------6--7--6--7--6--7--|
D|--0------------------------------|----------------------------------|
A|---------------------------------|----------------------------------|
E|---------------------------------|----------------------------------|



[Ending]

   Guitar 1
e|-----------------------------------|------------------------------------|
B|-----------------------------------|------------------------------------|
G|-----------------------------------|------------------------------------|
D|----5-------5----------------------|----5-------5-----------------------|
A|-7--7----7--7----7-----------------|-7--7----7--7----7------------------|
E|-----------------------------------|------------------------------------|
 | 
 | Guitar 2
e|-----------------------------------|-----------------3-----3p2----------|
B|-----------------------------------|-3----------------------------3-----|
G|-6------------------------7--6--7--|-------2---------2------------------|
D|-----------------------------------|------------------------------------|
A|-----------------------------------|------------------------------------|
E|-----------------------------------|------------------------------------|

   Guitar 1
e|-----------------------------------|------------------------------------|
B|-----------------------------------|------------------------------------|
G|-----------------------------------|------------------------------------|
D|----4-------4----------4-----------|----4------------4------------------|
A|----5-------5----------5-----------|----5------------5------------------|
E|-5-------5-------5-----------------|-5-------5--------------------------|
 |
 | Guitar 2
e|-2---------------------------------|-----------------2-----------0------|
B|-----------------------------3-----|-----------------------3------------|
G|-----------------------2-----------|------------------------------------|
D|-----------------------------------|------------------------------------|
A|-----------------------------------|------------------------------------|
E|-----------------------------------|------------------------------------|


   Guitar 1
e|-----------------------------------|-----------------------------------|-----------------|
B|-----------------------------------|-----------------------------------|-----------------|
G|-----------------------------------|-----------------------------------|-----------------|
D|----5-------7----------9-----9-----|----9------------7-----------------|-4---------------|
A|-7--7----7--7----7-----7-----7-----|-7--7----7--7----7-----------------|-5---------------|
E|-----------------------------------|-----------------------------------|-----------------|
 |
 | Guitar 2
e|-----------------------------------|-----------------2-----------0-----|------------2----|
B|-----------------------------------|-----------------------3-----------|--------3--------|
G|-----------------------------------|-----------------------------------|-----------------|
D|-----------------------------------|-----------------------------------|-----------------|
A|-----------------------------------|-----------------------------------|-----------------|
E|-----------------------------------|-----------------------------------|-----------------|


************************************

| x   Dead note
| g   Grace note
| (n) Ghost note
| h   Hammer-on
| p   Pull-off
| r   Release
| >   Accented note
| t   Tapping
| b   Bend
| br  Bend release
| pb  Pre-bend
| pbr Pre-bend release
| /   Slide up
| \   Slide down
| ~   Vibrato
| s   Slap
| P   Pop
| PM  Palm mute
| TR  Trill
| N   Tremolo

************************************

            
            
Suggest correction
Creating personal tab
Creating personal tab
You can edit any tab online and save it as your Personal.

You can edit, replace or remove any tab part or add personal notes – all changes will be seen only by you.

Personal tabs can be accessed anytime from any device, even offline.
Learn more »
Give kudos to tab author, rate the tab!
1 2 3 4 5
comments
print report bad tab
guest
You may want to rate the tab now too:
select rating
Wanna post a correction for this tab? Suggest correction