Oops, an error
Loading. Please wait.

Come With Me bass

version 1
version 1

Whole song

Interactive

809 views 1 this week
no commentswrite comment
1 2 3 4 5
2 more votes to show rating
add to favorites
×
Save as Personal and add changes to this tab that will be seen only by you. Learn more ›
×
You can save this tab as Personal to edit and correct it or add notes. All changes will be seen only by you. Learn more »
launch autoscroll
font size
0
reset
guitar tuner
edit
Autoscroll
slow
fast
+/-
esc
set tempo
stop
Artist: The Deiviates
Song: Come with Me
Album: Time is the distance

ok, i was getting tabs for this song, because i didn't think i tabbed it quite right, 
it was ridiculous how wrong some of them were, and the same one was on like 5 sites. im 
sure this is right. if your not sure about a certain part, listen to the song. tuning is normal.


|------------------------|
|------------------------|
|-------7----------------|
|--5-------5-5-5-5-5-----|

|-------------------------------------------------------------|
|-------------------------------------------------------------|
|5555555555555555---------------8888888888888888--------------|
|----------------666666666666666----------------88888888888888|


|------------------------------------------------------|
|------------------------------------------------------| x1
|-55555555--------88888888------555555555--------------|
|---------66666666--------888888---------6666666666----|
she said face your fears...

|-----------------------------------|
|-777-9-10-10-9-9-------------------| x1
|------------------777-9-10-10-9-9--|
|-----------------------------------|

|--------------------------------|
|--------------------------------|
|55555555-88888888---------------|x2
|------------------6555555-655555|
coming down with me...

|---------------|
|---------------|
|-2--2-2-2-2-2-2|
|---3-3-3-3-3-3-|

|--------------------------|-------------------------------------|
|--------------------------|-777-9-10-10-9-9---------------------|
|555555555555--------------|-----------------777-9-10-10-9-9-----|
|------------66666666666666|-------------------------------------|
im alone, but not alone...

|--------------------------------------------------|
|--------------------------------------------------|
|55555555555---------------88888888888-------------|
|-----------666666666666666-----------88888888888--|
the give and take, the...

|---------------------------------|
|---------------------------------|
|555555555-88888888---------------|
|------------------6555555-6555555|
coming down with me...

|---------------|
|---------------|
|2--2-2-2-2-2-2-|
|--3-3-3-3-3-3-3|

|---------------------------------------------------------------|
|---------------------------------------------------------------|
|5555555555555555----------------8888888888888888---------------|
|----------------6666666666666666----------------888888888888888|
 (intro again)

|------------------------------------|    |-------------|
|------------------------------------| x4 |-------------|
|555555555----------888888888--------|    |5xxxxxx4xxxxx|
|---------6666666666---------88888888|    |-------------|
im in search of a...

|----------------------------------|
|----------------------------------|
|55555555---------88888888---------|
|--------666666666--------888888888|
the give and take, the...

|-----------------------------------|
|-----------------------------------|
|55555555-8888888888----------------|
|--------------------6555555-6555555|
coming down with me...

|---------------------------------------------|----------------------------|
|---------------------------------------------|----------------------------|
|55555555555555------------8888888888---------|555555-8888888--------------|
|--------------666666666666----------888888888|--------------6555555-655555|
so free from all this....                      coming down with me!

|----------------------|
|----------------------|
|-2--2-2-2-2-2-2-2-2-2-|
|---3-3-3-3-3-3-3-3-3-3|


                                VOILA!

            
            
Suggest correction
Creating personal tab
Creating personal tab
You can edit any tab online and save it as your Personal.

You can edit, replace or remove any tab part or add personal notes – all changes will be seen only by you.

Personal tabs can be accessed anytime from any device, even offline.
Learn more »
Give kudos to tab author, rate the tab!
1 2 3 4 5
comments
print report bad tab
guest
Wanna post a correction for this tab? Suggest correction