Oops, an error
Loading. Please wait.

Bitter Pill intro tab

version 1
version 1

Intro

Whole song

2,710 views 3 this week
1 commentread comment
1 2 3 4 5
2 more votes to show rating
add to favorites
×
Save as Personal and add changes to this tab that will be seen only by you. Learn more ›
×
You can save this tab as Personal to edit and correct it or add notes. All changes will be seen only by you. Learn more »
launch autoscroll
font size
0
reset
how to read this tab
guitar tuner
edit
Autoscroll
slow
fast
+/-
esc
set tempo
stop
yeah, im terrible with my ear, but im just givin this a shot its just the opening chorus

any corrections?
get me at slitheringdarcness@yahoo.com

IF ANY COULD TAB OUT THE ALBUM? THAT BE WONDERFUL (:
Kick ass song  \m/

intro guitar 2

|------------------------------------------------------------------|
|------------------------------------------------------------------|
|------------------------------------------------------------------|
|------------------------------------------------------------------|
|-0----0-3--3-7--7-3---0--0-3---3-8---8-7--------------------------|
|-0----0-3--3-7--7-3---0--0-3---3-8---8-7--------------------------|


chorus

|------------------------------------------------------------------|
|------------------------------------------------------------------|
|------------------------------------------------------------------|
|------------------------------------------------------------------|
|-0----0-3---7---3---0--0-3--8--7----------------------------------|
|-0----0-3---7---3---0--0-3--8--7----------------------------------|

            
            
Suggest correction
Creating personal tab
Creating personal tab
You can edit any tab online and save it as your Personal.

You can edit, replace or remove any tab part or add personal notes – all changes will be seen only by you.

Personal tabs can be accessed anytime from any device, even offline.
Learn more »
Give kudos to tab author, rate the tab!
1 2 3 4 5
comments
print report bad tab
1 comment total.
0 reply
systematication 188 Aug 26, 2009 12:48 AM

Dude the main riff goes like this (well the chord pattern anyway)

D|------------------------------------------|
A|------------------------------------------|
F|------------------------------------------|
C|-0-2-3-5-7-3-2-2-3-----0-2-3-7-8-10-7-7-8-|
G|-0-2-3-5-7-3-2-2-3-----0-2-3-7-8-10-7-7-8-|
C|-0-2-3-5-7-3-2-2-3-----0-2-3-7-8-10-7-7-8-|

Cheers

guest
Wanna post a correction for this tab? Suggest correction