Oops, an error
Loading. Please wait.
We have an official Clouds Over California tab made by UG professional guitarists. Check out the tab »
×
82 views 6 this week
no commentswrite comment
1 2 3 4 5
3 more votes to show rating
add to favorites
×
Save as Personal and add changes to this tab that will be seen only by you. Learn more ›
×
You can save this tab as Personal to edit and correct it or add notes. All changes will be seen only by you. Learn more »
launch autoscroll
font size
0
reset
guitar tuner
backing track
0:00
0:00
edit
Autoscroll
slow
fast
+/-
esc
set tempo
stop
Devildrive: Clouds Over California

Guitar Intro

Intro
F|------------------------------------------------------|
C|------------------------------------------------------|
G|-10~----8\--------------------------------------------|2x
D|--------------0~-----------------0-0-0----------------|

F|-----------------------------------|
C|-----------------------------------|
G|-10~----8\-------------------------|
D|------------0--0--0--0--0--0--0--0-|

F|------------------------|
C|------------------------|
G|------------------------|2x
D|-0--0--0--0--0--0--0--0-|

F|---------------------------|
C|---------------------------|
G|---------------------------|
D|-0--0--0--0--0---------12\-|

Verse:
F|------------------------------------------------------|
C|------------------------------------------------------|
G|------------------------------------------------------|
D|-0-0-0-0-0~-0-0-0~-0-0-0-2--0-0-0-0-0~-0-0-2~-0-0-2-3-|

F|-----------------------------------------------------------|
C|-----------------------------------------------------------|
G|-----------------------------------2-2-2-2-----------------|
D|-0-0-0-0-2~-0-0-3~-0-0-3-5-3-3-3-3---------1-1-1-1-1-1-1-1-|

F|------------------------------------------------------|
C|------------------------------------------------------|
G|------------------------------------------------------|
D|-0-0-0-0-0~-0-0-0~-0-0-0-2--0-0-0-0-0~-0-0-2~-0-0-2-3-|

F|-----------------------------------------------------------|
C|-----------------------------------------------------------|
G|-----------------------------------------------------------|
D|-0-0-0-0-2~-0-0-3~-0-0-3-5-3-3-3-3-3-3-3-3-1-1-1-1-1-1-1-1-|

F|------------------------------------------------------|
C|------------------------------------------------------|
G|------------------------------------------------------|
D|-0-0-0-0-0~-0-0-0~-0-0-0-2--0-0-0-0-0~-0-0-2~-0-0-2-3-|

F|-----------------------------------------------------------|
C|-----------------------------------------------------------|
G|-----------------------------------2-2-2-2-----------------|
D|-0-0-0-0-2~-0-0-3~-0-0-3-5-3-3-3-3---------1-1-1-1-1-1-1-1-|

Pre-Chorus:
F|-----------------------------------------------------------------|
C|-----------------------------------------------------------------|
G|-2-2-2-2-2-2-2-2-2-2-2-2-2-2-2-2-3-3-3-3-3-3-3-3-3-3-3-3-3-3-3-3-|
D|-----------------------------------------------------------------|

F|-----------------------------------------------------------------|
C|-----------------------------------------------------------------|
G|-5-5-5-5-5-5-5-5-5-5-5-5-5-5-5-5-6-6-6-6-6-6-6-6-6-6-6-6-6-6-6-6-|
D|-----------------------------------------------------------------|

Repeat: Verse
        Pre-Chorus

Chorus
F|---------------------------------------------------|
C|---------------------------------------------------|
G|-7--7--7--7--3-3--3--3--3--2-2--2--2--2------------|
D|-----------------------------------------3~---2~---|

F|-----------------------------------------------------------------|
C|-----------------------------------------------------------------|
G|-----------------7-7-7-7-7-7-7-7-----------------9-9-9-9-9-9-9-9-|
D|-0-0-0-0-0-0-0-0-----------------0-0-0-0-0-0-0-0-----------------|

F|-----------------------------------------------------------------|
C|-----------------5-5-5-5-5-5-5-5---------------------------------|
G|-------------------------------------------------6-6-6-6-6-6-6-6-|
D|-0-0-0-0-0-0-0-0-----------------0-0-0-0-0-0-0-0-----------------|

F|-----------------------------------------------------------------|
C|-----------------------------------------------------------------|
G|-----------------7-7-7-7-7-7-7-7-----------------7-7-7-7-9-9-9-9-|
D|-0-0-0-0-0-0-0-0-----------------0-0-0-0-0-0-0-0-----------------|

F|-----------------------------------------------------------------|
C|-----------------4-4-4-4-5-5-5-5---------------------------------|
G|-------------------------------------------------9-9-9-9-6-6-6-6-|
D|-0-0-0-0-0-0-0-0-----------------0-0-0-0-0-0-0-0-----------------|

F|-----------------------------------------------------------------|
C|-----------------------------------------------------------------|
G|-----------------------------------------------------------------|
D|-0~----------------------------------------------------3~---1~---|

Verse 2:
F|------------------------------------------------------|
C|------------------------------------------------------|
G|------------------------------------------------------|
D|-0-0-0-0-0~-0-0-0~-0-0-0-2--0-0-0-0-0~-0-0-2~-0-0-2-3-|

F|-----------------------------------------------------------|
C|-----------------------------------------------------------|
G|-----------------------------------2-2-2-2-----------------|
D|-0-0-0-0-2~-0-0-3~-0-0-3-5-3-3-3-3---------1-1-1-1-1-1-1-1-|

F|------------------------------------------------------|
C|------------------------------------------------------|
G|------------------------------------------------------|
D|-0-0-0-0-0~-0-0-0~-0-0-0-2--0-0-0-0-0~-0-0-2~-0-0-2-3-|

F|-----------------------------------------------------------|
C|-----------------------------------------------------------|
G|-----------------------------------------------------------|
D|-0-0-0-0-2~-0-0-3~-0-0-3-5-3-3-3-3-3-3-3-3-1-1-1-1-1-1-1-1-|

Repeat: Pre-Chorus 

Chorus 2:
F|---------------------------------------------------|
C|---------------------------------------------------|
G|-7--7--7--7--3-3--3--3--3--2-2--2--2--2------------|
D|-----------------------------------------3~---2~---|

F|-----------------------------------------------------------------|
C|-----------------------------------------------------------------|
G|-----------------7-7-7-7-7-7-7-7-----------------9-9-9-9-9-9-9-9-|
D|-0-0-0-0-0-0-0-0-----------------0-0-0-0-0-0-0-0-----------------|

F|-----------------------------------------------------------------|
C|-----------------5-5-5-5-5-5-5-5---------------------------------|
G|-------------------------------------------------6-6-6-6-6-6-6-6-|
D|-0-0-0-0-0-0-0-0-----------------0-0-0-0-0-0-0-0-----------------|

F|-----------------------------------------------------------------|
C|-----------------------------------------------------------------|
G|-----------------7-7-7-7-7-7-7-7-----------------7-7-7-7-9-9-9-9-|
D|-0-0-0-0-0-0-0-0-----------------0-0-0-0-0-0-0-0-----------------|

F|-----------------------------------------------------------------|
C|-----------------4-4-4-4-5-5-5-5---------------------------------|
G|-------------------------------------------------9-9-9-9-6-6-6-6-|
D|-0-0-0-0-0-0-0-0-----------------0-0-0-0-0-0-0-0-----------------|

F|-----------------------------------------------------------------|
C|-----------------------------------------------------------------|
G|-----------------------------------------------------------------|
D|-0~------------------------------2~------------------------------|

F|-----------------------------------------------------------------|
C|-----------------------------------------------------------------|
G|---------------------------------3~--------------6~--------------|
D|-3~--------------------------------------------------------------|

F|-----------------------------------------------------------------|
C|-----------------------------------------------------------------|
G|-----------------------------------------------------------------|
D|-0~------------------------------2~------------------------------|

F|-----------------------------------------------------------------|
C|-----------------------------------------------------------------|
G|---------------------------------3~--------------6~--------------|
D|-3~--------------------------------------------------------------|

F|-------------------------------------------------------------|
C|-------------------------------------------------------------|
G|-------------------------------------------------------------|
D|-0~--------------------------------------------12\\\\\\\\\\--|

Bridge:
F|--------------------------------------------------|
C|--------------------------------------------------|
G|------------7~-------------7~------10~---------8~-|
D|-0~-7-7-7-7----0-0-0-0-7-7-----8-8-----8-8-8-8----|

F|-------------------------------------------------|
C|-------------------------------------------------|
G|------------7~-------------5~------7~---------8~-|
D|-0~-7-7-7-7----0-0-0-0-7-7-----7-7-----8-8-8-8---|

F|--------------------------------------------------|
C|--------------------------------------------------|
G|------------7~-------------7~------10~---------8~-|
D|-0~-7-7-7-7----0-0-0-0-7-7-----8-8-----8-8-8-8----|

F|-------------------------------------------------|
C|-------------------------------------------------|
G|------------7~-------------5~------7~---------8~-|
D|-0~-7-7-7-7----0-0-0-0-7-------7----------8------|

F|--------------------------------------------------|
C|--------------------------------------------------|
G|------------7~-------------7~------10~---------8~-|
D|-0~-7-7-7-7----0-0-0-0-7-------8----------8-------|

F|-------------------------------------------------|
C|-------------------------------------------------|
G|------------7~-------------5~------7~---------8~-|
D|-0~-7-7-7-7----0-0-0-0-7-------7----------8------|

F|--------------------------------------------------|
C|--------------------------------------------------|
G|------------7~-------------7~------10~---------8~-|
D|-0~-7-7-7-7----0-0-0-0-7-------8----------8-------|

F|-------------------------------------------------|
C|-------------------------------------------------|
G|------------7~-------------5~------7~---------8~-|
D|-0~-7-7-7-7----0-0-0-0-7-------7----------8------|

Solo: 2x
F|--------------------------------------------------------------------|
C|--------------------------------------------------------------------|
G|-3--2--0---------3--3--2--0---------3--3--2--5--3--7----------------|
D|----------3--0~--------------3--0~------------------------3~---1~---|

Final:
F|---------------------------------------------------|
C|---------------------------------------------------|
G|-7--7--7--7--3-3--3--3--3--2-2--2--2--2------------|
D|-----------------------------------------3~---2~---|

F|-----------------------------------------------------------------|
C|-----------------------------------------------------------------|
G|-----------------7-7-7-7-7-7-7-7-----------------9-9-9-9-9-9-9-9-|
D|-0-0-0-0-0-0-0-0-----------------0-0-0-0-0-0-0-0-----------------|

F|-----------------------------------------------------------------|
C|-----------------5-5-5-5-5-5-5-5---------------------------------|
G|-------------------------------------------------6-6-6-6-6-6-6-6-|
D|-0-0-0-0-0-0-0-0-----------------0-0-0-0-0-0-0-0-----------------|

F|-----------------------------------------------------------------|
C|-----------------------------------------------------------------|
G|-----------------7-7-7-7-7-7-7-7-----------------7-7-7-7-9-9-9-9-|
D|-0-0-0-0-0-0-0-0-----------------0-0-0-0-0-0-0-0-----------------|

F|-----------------------------------------------------------------|
C|-----------------4-4-4-4-5-5-5-5---------------------------------|
G|-------------------------------------------------9-9-9-9-6-6-6-6-|
D|-0-0-0-0-0-0-0-0-----------------0-0-0-0-0-0-0-0-----------------|

F|-----------------------------------------------------------------|
C|-----------------------------------------------------------------|
G|-----------------------------------------------------------------|
D|-0~------------------------------2~------------------------------|

F|-----------------------------------------------------------------|
C|-----------------------------------------------------------------|
G|---------------------------------3~--------------6~--------------|
D|-3~--------------------------------------------------------------|

F|-----------------------------------------------------------------|
C|-----------------------------------------------------------------|
G|-----------------------------------------------------------------|
D|-0~------------------------------2~------------------------------|

F|-----------------------------------------------------------------|
C|-----------------------------------------------------------------|
G|---------------------------------3~--------------6~--------------|
D|-3~------------/15~----------------------------------------------|

Outro Part 1:
F|--------------------------------------------|
C|--------------------------------------------|
G|--------------------------------------------|
D|-0-0-0-0-0-0-0-0-0~--0--0-0-0-0-0-0-0-0-0~--|

F|--------------------------------------------|
C|--------------------------------------------|
G|---------------------------6--6--6-----7\---|
D|-0--0-0-0-0-0-0-0-0-0~--7-----------7-------|

Outro Part 2: Repeat & Fade Out
F|--------------------------------------------------|
C|--------------------------------------------------|
G|--------------------------------------------------|
D|-0--0--0-0-0-0-0-0-0-0-0~--0--0-0-0-0-0-0-0-0-0~--|

F|--------------------------------------------|
C|--------------------------------------------|
G|---------------------------6--6--6-----7\---|
D|-0--0-0-0-0-0-0-0-0-0~--7-----------7-------|

F|--------------------------------------------------|
C|--------------------------------------------------|
G|----------------------------------------------9~--|
D|-0--0--0-0-0-0-0-0-0-0-0~--0--0-0-0-0-0-0-0-0-----|

F|--------------------------------------------|
C|--------------------------------------------|
G|--------------------10~----6--6--6-----7\---|
D|-0--0-0-0-0-0-0-0-0-----7-----------7-------|


            
            
Suggest correction
Creating personal tab
Creating personal tab
You can edit any tab online and save it as your Personal.

You can edit, replace or remove any tab part or add personal notes – all changes will be seen only by you.

Personal tabs can be accessed anytime from any device, even offline.
Learn more »
Give kudos to tab author, rate the tab!
1 2 3 4 5
comments
print report bad tab
guest
You may want to rate the tab now too:
select rating
Wanna post a correction for this tab? Suggest correction