Oops, an error
Loading. Please wait.
We have an official Hold Back The Day tab made by UG professional guitarists. Check out the tab »
×
3,493 views 3 this week
no commentswrite comment
1 2 3 4 5
x 3
add to favorites
×
Save as Personal and add changes to this tab that will be seen only by you. Learn more ›
×
You can save this tab as Personal to edit and correct it or add notes. All changes will be seen only by you. Learn more »
launch autoscroll
font size
0
reset
how to read this tab
guitar tuner
backing track
0:00
0:00
edit
Autoscroll
slow
fast
+/-
esc
set tempo
stop
Author
Intro(0:10-0:26)
C#|-----------------------------|
G#|-----------------------------|
E |----0-3-----0-3-----7-------6|
B |--------0-------------8------|
F#|--0-------0-------8-------7--|
B |0---------------8-------7----|

C#|-------------------------------|
G#|-------------------------------|
E |----0-3-----0-3-----7-------6-6|
B |--------0-------------8--------|
F#|--0-------0-------8-------7----|
B |0---------------8-------7------|

C#|-----------------------------|
G#|-----------------------------|
E |----0-3-----0-3-----7-------6|
B |--------0-------------8------|
F#|--0-------0-------8-------7--|
B |0---------------8-------7----|

Verse 1(0:27-0:36), (3:50-4:11)
C#|-------------------------------------------|
G#|-------------------------------------------|
E |-------------------------------------------|
B |-------------------------------------------|
F#|-------------------------------------------|
B |0-3--0-3--0-13\--0-3--0-8--0-8--0-15\--0-7-|

C#|---------------------------------------------|
G#|---------------------------------------------|
E |---------------------------------------------|
B |----------------------------------------11b12|
F#|0-3--0-3--0-13\--0-3--0-8--0-8--0-15\--------|
B |0-3--0-3--0-13\--0-3--0-8--0-8--0-15\--------|
  |
C#|--------------------------------------------|
G#|--------------------------------------------|
E |----------------------------------------9b10|
B |--------------------------------------------|
F#|0-3--0-3--0-13\--0-3--0-8--0-8--0-15\-------|
B |0-3--0-3--0-13\--0-3--0-8--0-8--0-15\-------|

Verse 2(0:37-0:59), (1:33-1:53), (2:28-2:48), (3:28-3:49-|
C#|------------------------------------------------------|
G#|------------------------------------------------------|
E |------------------------------------------------------|
B |------------------------121212121212111111111111------|
F#|121212121212131313131313------------------------------|
B |------------------------------------------------------|
  |
C#|-------------------------------------|
G#|-------------------------------------|
E |-------------------------------------|
B |-------------------------------------|
F#|------------------------888888777777-|
B |121212121212121212121212-------------|

C#|-------------------------------------------------|
G#|-------------------------------------------------|
E |-------------------------------------------------|
B |------------------------121212121212151515141414-|
F#|121212121212131313131313-------------------------|
B |-------------------------------------------------|
  |
C#|-------------------------------|
G#|-------------------------------|
E |-------------------------------|
B |-------------------------------|
F#|------------------------888777-|
B |121212121212121212121212-------|

C#|------------------|
G#|------------------|
E |------------------|
B |------------------|
F#|12-13-10-0-8-0-7~-|
B |------------------|
    .  .  . .   .

C#|-------------------------------------------------|
G#|-------------------------------------------------|
E |-------------------------------------------------|
B |------------------------121212121212111111111111-|
F#|121212121212131313131313-------------------------|
B |-------------------------------------------------|
  |
C#|-------------------------------------|
G#|-------------------------------------|
E |-------------------------------------|
B |-------------------------------------|
F#|------------------------888888777777-|
B |121212121212121212121212-------------|

C#|---------------------------------------------------|
G#|---------------------------------------------------|
E |---------------------------------------------------|
B |------------------------121212121212111111111111---|
F#|121212121212131313131313------------------------12\|
B |---------------------------------------------------|
  |
C#|---------------------------------------|
G#|---------------------------------------|
E |---------------------------------------|
B |---------------------------------------|
F#|------------------------111111000000---|
B |121212121212121212121212------------12\|

Verse 3(1:00-1:20), (1:54-2:16)
C#|--------------------------------------------------|
G#|--------------------------------------------------|
E |--------------------------------------------------|
B |--------------------------------------------------|
F#|--------------------------------------------------|
B |1-0-0-0-00000000-1-0-0-0-000-000-1-0-0-0-00000000-|
       . . ........     . . ... ...     . . ........
C#|----------------------------------------------------|
G#|----------------------------------------------------|
E |----------------------------------------------------|
B |----------------------------------------------------|
F#|----------------------------------------------------|
B |887700101088000000-1-0-0-0-00000000-1-0-0-0-000-000-|
   ..................     . . ........     . . ... ...

C#|-----------------------------------------------------|
G#|-----------------------------------------------------|
E |-----------------------------------------------------|
B |-----------------------------------------------------|
F#|-------------------------------------------1h3p1p0---|
B |1-0-0-0-00000000887700101088000000-1-0-0-0---------3-|
       . . ..........................     . .

C#|---------------------------------------------------|
G#|---------------------------------------------------|
E |---------------------------------------------------|
B |---------------------------------------------------|
F#|-----1-3-1-0----------1h3p1p0----------------------|
B |1-0---------3-1-0-0-0---------3-887700101088000000-|
                   . .             ..................

C#|---------------------------------------------------|
G#|---------------------------------------------------|
E |---------------------------------------------------|
B |---------------------------------------------------|
F#|--------1h3p1p0--------1-3-1-0-----------1h3p1p0---|
B |1-0-0-0---------3-1-0----------3-1-0-0-0---------3-|
       . .                              . .

C#|------------------|
G#|------------------|
E |------------------|
B |------------------|
F#|------------------|
B |887700101088000000|
   ..................

Verse 4(1:21-1:32), (2:17-2:27), (3:17-3:27--------|
C#|10-13--10-13--10-13--10-13-----13-----13-----12-|
G#|----------------------------11-----11-----10----|
E |------------------------------------------------|
B |------------------------------------------------|
F#|------------------------------------------------|
B |------------------------------------------------|
  |
C#|--------------------------------|
G#|--------------------------------|
E |--------------------------------|
B |--------------------------------|
F#|0-0-0-0-0-0-0-0-0-0-0-0-0-0-0-0-|
B |0-0-0-0-0-0-0-0-0-0-0-0-0-0-0-0-|
   . . . . . . . . . . . . . . . .

C#|12b/13\-10-13--10-13--10-13--10-13-----13-----13-|
G#|------------------------------------11-----11----|
E |-------------------------------------------------|
B |-------------------------------------------------|
F#|-------------------------------------------------|
B |-------------------------------------------------|
  |
C#|--------------------------------|
G#|--------------------------------|
E |--------------------------------|
B |--------------------------------|
F#|8-8-8-8-8-8-8-8-7-7-7-7-7-7-7-7-|
B |8-8-8-8-8-8-8-8-7-7-7-7-7-7-7-7-|
   . . . . . . . . . . . . . . . .

C#|---12------|
G#|10---------|
E |-------9b10|
B |-----------|
F#|-----------|
B |-----------|
  |
C#|-----|
G#|-----|
E |11b12|
B |-----|
F#|-----|
B |-----|

Bridge(2:49-3:16)
C#|------------------------------------------------|
G#|------------------------------------------------|
E |------------------------------------------------|
B |------------------------------------------------|
F#|1-0--0-00000000-1-0--0-00000000-1-0--0-00000000-|
B |1-0--0-00000000-1-0--0-00000000-1-0--0-00000000-|
        . ........      . ........      . ........

C#|----------------------------------------------|
G#|----------------------------------------------|
E |----------------------------------------------|
B |----------------------------------------------|
F#|1-0-0000-5-7-7-7--0--5-7-5-3-0--0—-5-7-5-3-0--|
B |1-0-0000-5-7-7-7--0—-5-7-5-3-0--0—-5-7-5-3-0--|
       ....

C#|------------------------------------------|
G#|------------------------------------------|
E |------------------------------------------|
B |------------------------------------------|
F#|0—-5-7-5-3-3--3--5-7-5-3-2--2--5-7-5-3-0--|
B |0—-5-7-5-3-3--3--5-7-5-3-2--2--5-7-5-3-0--|

C#|------------------------------------------|
G#|------------------------------------------|
E |------------------------------------------|
B |------------------------------------------|
F#|0—-5-7-5-3-0--0—-5-7-5-3-3--5-7-5-3-2--2--|
B |0—-5-7-5-3-0--0—-5-7-5-3-3--5-7-5-3-2--2--|

C#|------------------------------------------------|
G#|------------------------------------------------|
E |------------------------------------------------|
B |------------------------------------------------|
F#|5-7-5-3-000000--5-7-5-3-000000--5-7-5-3-333333--|
B |5-7-5-3-000000--5-7-5-3-000000--5-7-5-3-333333--|
           ......          ......          ......

C#|------------------------------------------------|
G#|------------------------------------------------|
E |------------------------------------------------|
B |------------------------------------------------|
F#|5-7-5-3-222222--5-7-5-3-000000--5-7-5-3-000000--|
B |5-7-5-3-222222--5-7-5-3-000000--5-7-5-3-000000--|
           ......          ......          ......

C#|-----------------------------|
G#|-----------------------------|
E |-----------------------------|
B |-----------------------------|
F#|5-7-5-3-333333--5-7-5-3-22-22|
B |5-7-5-3-333333--5-7-5-3-22-22|
           ......          .. ..

            
            
Suggest correction
Creating personal tab
Creating personal tab
You can edit any tab online and save it as your Personal.

You can edit, replace or remove any tab part or add personal notes – all changes will be seen only by you.

Personal tabs can be accessed anytime from any device, even offline.
Learn more »
Give kudos to tab author, rate the tab!
1 2 3 4 5
comments
print report bad tab
guest
You may want to rate the tab now too:
select rating
Wanna post a correction for this tab? Suggest correction