Oops, an error
Loading. Please wait.
We have an official I Could Care Less tab made by UG professional guitarists. Check out the tab »
×
20,178 views 15 this week
11 commentsread comments
1 2 3 4 5
x 11
add to favorites
×
Save as Personal and add changes to this tab that will be seen only by you. Learn more ›
×
You can save this tab as Personal to edit and correct it or add notes. All changes will be seen only by you. Learn more »
launch autoscroll
font size
0
reset
how to read this tab
guitar tuner
backing track
0:00
0:00
edit
Autoscroll
slow
fast
+/-
esc
set tempo
stop
Legend
.  - palm mute           /  - slide up to
\  - slide down to       ~  - vibrato
h  - hammer on           b  - Bend
p  - pull off            Suffixes for bend
t  - tap                 f  - full bend    h - half bend
ph - pinched harmonic    q  - quarter bend t - tap bend
*  - see comment         ^  - Hold bend    r release bend
x  - Stuccatto           ~  - vibrato bend
,  - slight palm mute    () - ghost note, sustained note
"  - tremolo note        <> - Trill
0vol>>> - volume off to volume up




Tunning B F# B E G# C#

Intro
Gtr I
|--------------------------------------|
|-18-----18-----20-----22--------20h22-|
|---19-19--19-19--19-19--19-19-19------|
|--------------------------------------|
|--------------------------------------|
|--------------------------------------|

Gtr II
|--------------------------------------|
|--------------------------------------|
|--------------------------------------|
|--------------------------------------|
|-0------------------------------------|
|-0------------------------------------|
0vol>>>

|--------------------------------------|
|--------------------------------------|
|--------------------------------------|
|--------------------------------------| Repeat X4
|-3-0----------------------------------|
|-3-0----------------------------------|

|--------------------------------------|
|--------------------------------------|
|--------------------------------------|
|--------------------------------------| Repeat X4
|-3-0----------------------------------|
|-3-0---0-000-0-000----000--000--000---|
        . ... . ...    ...  ...  ...

Riff 1
Gtr I
|---------------------------------|
|---------------------------------|
|---------------------------------|
|---------------------------------|
|-3-0---3-0---3-0---3-0---2-2-2-2-|
|-3-0---3-0---3-0---3-0---2-2-2-2-|

Gtr II
|---------------------------------|
|-18-----18-----------------------|
|---19-19--19---------------------|
|---------------------------------| This only X4
|---------------------------------|
|---------------------------------|


Riff 2
|--------------------------------|
|--------------------------------|
|--------------------------------|
|--------------------------------|
|--------------------------0--5--|
|-0-5-8-0-5-8-0-5-8-0-5-8--0--5--|
                           .

|--------------------------------|
|--------------------------------|
|--------------------------------|
|--------------------------------|
|--------------------------0--8--|
|-0-5-8-0-5-8-0-5-8-0-5-8--0--8--|
                           .

Chorus
|---------------------------|
|---------------------------|
|---------------------------|
|---------------------------| Repeat X2 (this are the silences)
|-8\1/4--0---0---0-0-1--4--0|
|-8\1/4--0---0---0-0-1--4--0|

|-------------------------------|
|-------------------------------|
|-------------------------------|
|-------------------------------| Repeat X2
|-8\1/4--0---0---0-0-1--4--0----|
|-8\1/4--0---0---0-0-1--4--0----|


X4  Play Intro Gtr I w/Riff 1 Gtr I
X4  Play Riff 1 Gtr I
X2½ Play Riff 2

|-------------------------------|
|-------------------------------|
|-------------------------------|
|-------------------------------| Repeat X2
|-8\1/4--0---0---0-0-1--4--0----|
|-8\1/4--0---0---0-0-1--4--0----|

|---------------------------|
|---------------------------|
|---------------------------|
|---------------------------|
|-8\1/4--0---0---0-0-1--4--0|
|-8\1/4--0---0---0-0-1--4--0|

|-------------------------------|
|-------------------------------|
|-------------------------------|
|-------------------------------|
|-8\1/4--0---0---0-0-1--4--0----|
|-8\1/4--0---0---0-0-1--4--0----|


Now play Intro Gtr I

Gtr II
|---------------------------|
|---------------------------|
|---------------------------|
|---------------------------|
|-8\1/4--0-------1--4--0----|
|-8\1/4--0-------1--4--0----|


|---------------------------|
|---------------------------|
|---------------------------|
|---------------------------| Repeat X2
|---------------------------|
|-8\1/4--0-------1--4--0----|


Outro w/Gtr I
|-----------------|
|-----------------|
|-----------------|
|-----------------| Repeat X3
|-----------------|
|-111114444400000-|
  ...............

|-----------------|
|-----------------|
|-----------------|
|-----------------|
|-1-1-1-4-4-4-0---|
|-1-1-1-4-4-4-0---|

END
Suggest correction
Creating personal tab
Creating personal tab
You can edit any tab online and save it as your Personal.

You can edit, replace or remove any tab part or add personal notes – all changes will be seen only by you.

Personal tabs can be accessed anytime from any device, even offline.
Learn more »
comments
print report bad tab
11 comments total. Showing first comments.
0 reply
[.Malice.] 20 Dec 25, 2005 09:35 AM

Nice tab. It sounds about right when I play it out, and it's a fun song. =D

0 reply
Aenima42 155 Apr 19, 2006 04:12 PM

yah not sure but i think the 20h22 is a 20h22p20
thats what it sounds like to me anywayz

+1 reply
S520EX 20 Sep 21, 2006 01:46 PM

I think the intro is
----------------------------22----
18-----18-----20-----22-------22--
--19-19--19-19--19-19--19-19-----19
you can hear a higher note in it.
Thanks for tabbing it. Not a lot of people listen to DevidDriver.
Sweet Band!

guest
Wanna post a correction for this tab? Suggest correction