Oops, an error
Loading. Please wait.

Monsters Of The Deep bass

version 1
version 1

Whole song

Interactive

929 views 1 this week
no commentswrite comment
1 2 3 4 5
3 more votes to show rating
add to favorites
×
Save as Personal and add changes to this tab that will be seen only by you. Learn more ›
×
You can save this tab as Personal to edit and correct it or add notes. All changes will be seen only by you. Learn more »
launch autoscroll
font size
0
reset
guitar tuner
backing track
0:00
0:00
edit
Autoscroll
slow
fast
+/-
esc
set tempo
stop
Author
Difficulty
-------------------------------------------------------------------------------
			     MONSTERS OF THE DEEP - DEVILDRIVER
-------------------------------------------------------------------------------

Tabbed By : JO MAMA/ BASS
e-mail: vromanjm@crcs.k12.ny.us

Tuning:EADG

G|---------------------------------------------------------------------------|
D|---------------------------------------------------------------------------|
A|---------------------------------------------------------------------------|
E|-------0000000-0-----0000000-0-----0000000-0------0000000-0-----0000000-0--|X2

G|---------------------------------------------------------------------------|
D|---------------------------------------------------------------------------|
A|---------------------------------------------------------------------------|
E|----------0-0-0-0-0-0-0--5/6----------------0-0-0-0-0-0-0—5/6--------------|X2

G|---------------------------------------------------------------------------|
D|---------------------------------------------------------------------------|
A|---------------------------------------------------------------------------|
E|----------0-0-0-0-0-0-0--4-33---------------0-0-0-0-0-0-0-0-2-2-2-1--------|X1

G|---------------------------------------------------------------------------|
D|---------------------------------------------------------------------------|
A|---------------------------------------------------------------------------|
E|----------0-0-0-0-0-0-0--5/6----------------0-0-0-0-0-0-0—5/6--------------|X2

G|---------------------------------------------------------------------------|
D|---------------------------------------------------------------------------|
A|---------------------------------------------------------------------------|
E|----------0-0-0-0-0-0-0--4-33---------------0-0-0-0-0-0-0-0-2-2-2-1--------|X1

G|---------------------------------------------------------------------------|
D|---------------------------------------------------------------------------|
A|---------------------------------------------------------------------------|
E|-------3-0----3-0----3-0----3-0----3-4------5-0----5-0----5-0----5--5-6-7--|X1

G|---------------------------------------------------------------------------|
D|---------------------------------------------------------------------------|
A|---------------------------------------------------------------------------|
E|----------0-0-0-0-0-0-0--5/6----------------0-0-0-0-0-0-0—5/6--------------|X2

G|---------------------------------------------------------------------------|
D|---------------------------------------------------------------------------|
A|---------------------------------------------------------------------------|
E|-------3-0----3-0----3-0----3-0----3-4------5-0----5-0----5-0----5--5-6-7--|X1

G|---------------------------------------------------------------------------|
D|---------------------------------------------------------------------------|
A|---------------------------------------------------------------------------|
E|----------0-0-0-0-0-0-0--5/6----------------0-0-0-0-0-0-0—5/6--------------|X2

G|---------------------------------------------------------------------------|
D|---------------------------------------------------------------------------|
A|---------------------------------------------------------------------------|
E|----------0-0-0-0-0-0-0--4-33---------------0-0-0-0-0-0-0-0-2-2-2-1--------|X1

G|---------------------------------------------------------------------------|
D|---------------------------------------------------------------------------|
A|---------------------------------------------------------------------------|
E|-----------5-5---7-7-7-7------------5-6-6-6------------3-5-5-5-------------|X4

G|---------------------------------------------------------------------------|
D|---------------------------------------------------------------------------|
A|---------------------------------------------------------------------------|
E|----------0-0-0-0-0-0-0--5/6----------------0-0-0-0-0-0-0—5/6--------------|X2

G|---------------------------------------------------------------------------|
D|---------------------------------------------------------------------------|
A|---------------------------------------------------------------------------|
E|----------0-0-0-0-0-0-0--4-33---------------0-0-0-0-0-0-0-0-2-2-2-1--------|X1

G|---------------------------------------------------------------------------|
D|---------------------------------------------------------------------------|
A|---------------------------------------------------------------------------|
E|-------3-0----3-0----3-0----3-0----3-4------5-0----5-0----5-0----5--5-6-7--|X1

G|---------------------------------------------------------------------------|
D|---------------------------------------------------------------------------|
A|---------------------------------------------------------------------------|
E|----------0-0-0-0-0-0-0--5/6----------------0-0-0-0-0-0-0—5/6--------------|X2

G|---------------------------------------------------------------------------|
D|---------------------------------------------------------------------------|
A|---------------------------------------------------------------------------|
E|----------0-0-0-0-0-0-0--4-33---------------0-0-0-0-0-0-0-0-2-2-2-1--------|X1

G|---------------------------------------------------------------------------|
D|---------------------------------------------------------------------------|
A|---------------------------------------------------------------------------|
E|-------3-0----3-0----3-0----3-0----3-4------5-0----5-0----5-0----5--5-6-7--|X1

G|---------------------------------------------------------------------------|
D|---------------------------------------------------------------------------|
A|---------------------------------------------------------------------------|
E|----------0-0-0-0-0-0-0--4-33---------------0-0-0-0-0-0-0-0-2-2-2-1--------|X1

G|---------------------------------------------------------------------------|
D|---------------------------------------------------------------------------|
A|---------------------------------------------------------------------------|
E|-----------5-5---7-7-7-7------------5-6-6-6------------3-5-5-5-------------|X4

G|---------------------------------------------------------------------------|
D|---------------------------------------------------------------------------|
A|---------------------------------------------------------------------------|
E|-------0000000-0-----0000000-0-----0000000-0------0000000-0-----0000000-0--|X2

G|---------------------------------------------------------------------------|
D|---------------------------------------------------------------------------|
A|---------------------------------------------------------------------------|
E|----------------0-0-5------0-0-0-5------0-0-0-7------0-5-6--8-7------------|X1

G|---------------------------------------------------------------------------|
D|---------------------------------------------------------------------------|
A|---------------------------------------------------------------------------|
E|--------------0---3-3-3-3-3-3-3---------------0---2-2-2-2-2-2-2------------|X1

G|---------------------------------------------------------------------------|
D|---------------------------------------------------------------------------|
A|---------------------------------------------------------------------------|
E|9-9-9-9-9-9-9-9--12-12-12-12-12-12-12-12--7-7-7-7-7-7-7-7--5-5-5-5-5-5-5-5-|X2

G|---------------------------------------------------------------------------|
D|---------------------------------------------------------------------------|
A|---------------------------------------------------------------------------|
E|-----------5-5---7-7-7-7------------5-6-6-6------------3-5-5-5-------------|X4

G|---------------------------------------------------------------------------|
D|---------------------------------------------------------------------------|
A|-------------------------------------------------------------------3-------|
E|---------00000--------00000--------00000--------00000--------0000----------|X3

G|---------------------------------------------------------------------------|
D|---------------------------------------------------------------------------|
A|---------------------------------------------------------------------------|
E|--------0--4-6------0--4-6------0--4-6------0--4-4-4------0--4-6-----------|X1

G|---------------------------------------------------------------------------|
D|---------------------------------------------------------------------------|
A|-------------------------------------------------------------------3-------|
E|---------00000--------00000--------00000--------00000--------0000----------|X3

G|---------------------------------------------------------------------------|
D|---------------------------------------------------------------------------|
A|---------------------------------------------------------------------------|
E|--------0--4-6--------0--4-6--------0--4-6--------0--4-4-4--------2-2-2-1-|X1

| /  slide up
| \  slide down
| h  hammer-on
| p  pull-off
| ~  vibrato
| +  harmonic
| x  Mute note
===============================================================================


            
            
Suggest correction
Creating personal tab
Creating personal tab
You can edit any tab online and save it as your Personal.

You can edit, replace or remove any tab part or add personal notes – all changes will be seen only by you.

Personal tabs can be accessed anytime from any device, even offline.
Learn more »
Give kudos to tab author, rate the tab!
1 2 3 4 5
comments
print report bad tab
guest
You may want to rate the tab now too:
select rating
Wanna post a correction for this tab? Suggest correction