Oops, an error
Loading. Please wait.

Swinging The Dead tab

version 2
version 2

Whole song

Interactive

3,289 views 1 this week
no commentswrite comment
1 2 3 4 5
1 last vote to show rating
add to favorites
×
Save as Personal and add changes to this tab that will be seen only by you. Learn more ›
×
You can save this tab as Personal to edit and correct it or add notes. All changes will be seen only by you. Learn more »
launch autoscroll
font size
0
reset
how to read this tab
guitar tuner
edit
Autoscroll
slow
fast
+/-
esc
set tempo
stop
Author
Intro (0:00-0:10)
C#|----------------------------------------|
G#|----------------------------------------|
E |----------------------------------------|
B |--------------------------------------5-|
F#|0-0-0-6-5-0-6-5-0-6-5-0-0-6-5-0-6-5-0-6-|
B |0-0-0-------------------0---------------|
   . . .                   .

C#|----------------------------------|
G#|----------------------------------|
E |----------------------------------|
B |----------------------------------|
F#|0-0-6-5-0-6-5-0-6-5-0-1-0-0-6-5-3-|
B |0-0-------------------1-0-0-6-5-3-|
   . .                   . . . . . .

C#|----------------------------------------|
G#|----------------------------------------|
E |----------------------------------------|
B |--------------------------------------5-|
F#|0-0-0-6-5-0-6-5-0-6-5-0-0-6-5-0-6-5-0-6-|
B |0-0-0-------------------0---------------|
   . . .                   .

C#|------------------------------------|
G#|------------------------------------|
E |------------------------------------|
B |------------------------------------|
F#|0-0-6-5-0-6-5-0-6-5-0-3#~-0-0-6-5-3-|
B |0-0-----------------------0-0-6-5-3-|
   . .                       . . . . .

Verse 1 (0:11-0:21), (1:09-1:20)
C#|--------------------------------------------|
G#|--------------------------------------------|
E |--------------------------------------------|
B |------------------------------------------5-|
F#|0-0-0-6-5-0-6-5-0-6-5-0-0-0-0-6-5-0-6-5-0-6-|
B |0-0-0-------------------0-0-0---------------|
   . . .                   . . .

C#|----------------------------------|
G#|----------------------------------|
E |----------------------------------|
B |----------------------------------|
F#|0-0-6-5-0-6-5-0-6-5-0-1-0-0-6-5-3-|
B |0-0-------------------1-0-0-6-5-3-|
   . .                   . . . . . .

C#|----------------------------------------|
G#|----------------------------------------|
E |----------------------------------------|
B |--------------------------------------5-|
F#|0-0-0-6-5-0-6-5-0-6-5-0-0-6-5-0-6-5-0-6-|
B |0-0-0-------------------0---------------|
   . . .                   .

C#|-----------------------------------------------|
G#|-----------------------------------------------|
E |-----------------------------------------------|
B |----------------------------------------------0|
F#|0-0-6-5-0-6-5-0-6-5-0-6-5-0-6-5-0-6-5-0-6-5-0-1|
B |0-0--------------------------------------------|
   . .

Verse 2 (0:22-0:43), (1:21-1:42), (2:44-3:06-------------|
C#|------------------------------------------------------|
G#|------------------------------------------------------|
E |------------------------------------------------------|
B |------------------------------------------------------|
F#|------------------------------------------------------|
B |0-0-0-0-0-0-0-0-0-0-0-0-0-0-0-0-0-0-0-0-0-0-0-0-1-1-1-|
   . . . . . . . . . . . . . . . . . . . . . . . . . . .

C#|------------------------------------------------------|
G#|------------------------------------------------------|
E |------------------------------------------------------|
B |------------------------------------------------------|
F#|------------------------------------------------------|
B |0-0-0-0-0-0-0-0-0-0-0-0-0-0-0-0-0-0-0-0-0-0-0-0-3-3-3-|
   . . . . . . . . . . . . . . . . . . . . . . . . . . .

C#|------------------------------------------------------|
G#|------------------------------------------------------|
E |------------------------------------------------------|
B |------------------------------------------------------|
F#|------------------------------------------------------|
B |0-0-0-0-0-0-0-0-0-0-0-0-0-0-0-0-0-0-0-0-0-0-0-0-1-1-1-|
   . . . . . . . . . . . . . . . . . . . . . . . . . . .

C#|------------------------------------------------------|
G#|------------------------------------------------------|
E |------------------------------------------------------|
B |------------------------------------------------------|
F#|------------------------------------------------------|
B |0-0-0-0-0-0-0-0-0-0-0-0-0-0-0-0-0-0-0-0-0-0-0-0-3-3-3-|
   . . . . . . . . . . . . . . . . . . . . . . . . . . .

C#|------------------------------------------------------|
G#|------------------------------------------------------|
E |------------------------------------------------------|
B |------------------------------------------------------|
F#|------------------------------------------------------|
B |0-0-0-0-0-0-0-0-0-0-0-0-0-0-0-0-0-0-0-0-0-0-0-0-1-1-1-|
   . . . . . . . . . . . . . . . . . . . . . . . . . . .

C#|------------------------------------------------------|
G#|------------------------------------------------------|
E |------------------------------------------------------|
B |------------------------------------------------------|
F#|------------------------------------------------------|
B |0-0-0-0-0-0-0-0-0-0-0-0-0-0-0-0-0-0-0-0-0-0-0-0-3-3-3-|
   . . . . . . . . . . . . . . . . . . . . . . . . . . .

C#|------------------------------------------------------|
G#|------------------------------------------------------|
E |------------------------------------------------------|
B |------------------------------------------------------|
F#|------------------------------------------------------|
B |0-0-0-0-0-0-0-0-0-0-0-0-0-0-0-0-0-0-0-0-0-0-0-0-1-1-1-|
   . . . . . . . . . . . . . . . . . . . . . . . . . . .

C#|-----------------------------------------------------|
G#|-----------------------------------------------------|
E |-----------------------------------------------------|
B |-----------------------------------------------------|
F#|-----------------------------------------------------|
B |0-0-0-0-0-0-0-0-0-0-0-0-0-0-0-0-0-0-0-0-0-0-0-0-0-1-3|
   . . . . . . . . . . . . . . . . . . . . . . . . . . .

Chorus (0:46-1:08), (1:45-2:06), (3:09-3:19--------------|
C#|------------------------------------------------------|
G#|------------------------------------------------------|
E |------------------------------------------------------|
B |------------------------------------------------------|
F#|8\-------1----------1---1-3--------1----------1---1-3-|
B |8\-000-0-1--0-000-0-1—0-1-3--000-0-1--0-000-0-1—0-1-3-|
      ... .    . ... .   .      ... .    . ... .   .

C#|----------------------------------------------------|
G#|----------------------------------------------------|
E |----------------------------------------------------|
B |----------------------------------------------------|
F#|------1----------1---1--3--------1----------1---1-3-|
B |000-0-1--0-000-0-1—0-1--3--000-0-1--0-000-0-1—0-1-3-|
   ... .    . ... .   .       ... .    . ... .   .

C#|-----------------------------------------------------|
G#|-----------------------------------------------------|
E |-----------------------------------------------------|
B |-----------------------------------------------------|
F#|-----------------------------------------------------|
B |3-5-6-0--3-5-6-0--0-0-1-0--3-5-6-0--3-5-6-0--0-0-1-0-|

C#|-----------------------------------------------------|
G#|-----------------------------------------------------|
E |-----------------------------------------------------|
B |-----------------------------------------------------|
F#|-----------------------------------------------------|
B |3-5-6-0--3-5-6-0--0-0-1-0--3-5-6-0--3-5-6-0--0-0-1-0-|

Bridge (2:07-2:43)
C#|----------------------------------------|
G#|----------------------------------------|
E |----------------------------------------|
B |----------------------------------------|
F#|0---5-3-1-0h5p0-1--0---5-3-1-0h5p0-1--0-|
B |0------------------0------------------0-|
   .                  .                  .

C#|-----------------------------------|
G#|-----------------------------------|
E |-----------------------------------|
B |-----------------------------------|
F#|5-3-1-0h5p0-1--------5-3-1-0h5p0-1-|
B |---------------0-0-0---------------|
                  . . .

C#|--------------------------------------------|
G#|--------------------------------------------|
E |--------------------------------------------|
B |------------------------------------------0-|
F#|------3h5p1h3h5p1h3h5p1-------3h5p1h5p3p0-1-|
B |0-0-0-------------------0-0-0---------------|
   . . .                   . . .

C#|--------------------------------------------|
G#|--------------------------------------------|
E |--------------------------------------------|
B |------------------------------------------0-|
F#|------3h5p1h3h5p1h3h5p1-------3h5p1h5p3p0-1-|
B |0-0-0-------------------0-0-0---------------|
   . . .                   . . .
C#|--------------------------------------------|
G#|--------------------------------------------|
E |--------------------------------------------|
B |------------------------------------------0-|
F#|------3h5p1h3h5p1h3h5p1-------3h5p1h5p3p0-1-|
B |0-0-0-------------------0-0-0---------------|
   . . .                   . . .
C#|--------------------------------------------|
G#|--------------------------------------------|
E |--------------------------------------------|
B |------------------------------------------0-|
F#|------3h5p1h3h5p1h3h5p1-------3h5p1h5p3p0-1-|
B |0-0-0-------------------0-0-0---------------|
   . . .                   . . .
C#|--------------------------------------------|
G#|--------------------------------------------|
E |--------------------------------------------|
B |------------------------------------------0-|
F#|------3h5p1h3h5p1h3h5p1-------3h5p1h5p3p0-1-|
B |0-0-0-------------------0-0-0---------------|
   . . .                   . . .
C#|--------------------------------------------|
G#|--------------------------------------------|
E |--------------------------------------------|
B |------------------------------------------0-|
F#|------3h5p1h3h5p1h3h5p1-------3h5p1h5p3p0-1-|
B |0-0-0-------------------0-0-0---------------|
   . . .                   . . .
C#|--------------------------------------------|
G#|--------------------------------------------|
E |--------------------------------------------|
B |------------------------------------------0-|
F#|------3h5p1h3h5p1h3h5p1-------3h5p1h5p3p0-1-|
B |0-0-0-------------------0-0-0---------------|
   . . .                   . . .
C#|----------------------------------------------|
G#|----------------------------------------------|
E |----------------------------------------------|
B |------------------------------------------0---|
F#|------3h5p1h3h5p1h3h5p1-------3h5p1h5p3p0-1--0|
B |0-0-0-------------------0-0-0----------------0|
   . . .                   . . .

Outro (3:20-3:31)
C#|-----------------------------------------------------|
G#|-----------------------------------------------------|
E |-----------------------------------------------------|
B |-----------------------------------------------------|
F#|------5555----------------------5555-----------------|
B |665566----6655660000001100665566----6655660000001100-|

C#|-----------------------------------------------------|
G#|-----------------------------------------------------|
E |-----------------------------------------------------|
B |-----------------------------------------------------|
F#|------5555----------------------5555----------------0|
B |665566----6655660000001100665566----66556600000011000|
                                                       .
Suggest correction
Creating personal tab
Creating personal tab
You can edit any tab online and save it as your Personal.

You can edit, replace or remove any tab part or add personal notes – all changes will be seen only by you.

Personal tabs can be accessed anytime from any device, even offline.
Learn more »
Give kudos to tab author, rate the tab!
1 2 3 4 5
comments
print report bad tab
guest
You may want to rate the tab now too:
select rating
Wanna post a correction for this tab? Suggest correction