Oops, an error
Loading. Please wait.

Bones chords

version 2
version 2

Whole song

205 views 3 this week
no commentswrite comment
1 2 3 4 5
3 more votes to show rating
add to favorites
×
Save as Personal and add changes to this tab that will be seen only by you. Learn more ›
×
You can save this tab as Personal to edit and correct it or add notes. All changes will be seen only by you. Learn more »
launch autoscroll
font size
0
reset
transpose
0
reset
display chords
guitar tuner
edit
Autoscroll
slow
fast
+/-
esc
set tempo
stop
Author
Strumming
There is no strumming pattern for this song yet. and get +5 IQ
Cm   Cm   G#   Fm

              Cm
For all your light
You were not delivered.
         G#            
Landing hard
Fm                     Cm
Amidst the bones and myself.

          Cm
In I you trusted,
All your worries and wonders.
              G#  Fm          Cm
But you will find no comfort here.

G#                                  Cm
I built this road and this journey before you.
G#                                   G
These bones were men who all fell at my feet.

Eb                                      Cm
And when you’re tired and afraid I will hold you.
Eb                          G
Build you up, just to tear you apart.
Cm    Bb      Cm
This way, my child.

Cm   Cm   G#   Fm
Cm   Cm   G#   G   Cm

G#                                       Cm
I’ll take the journey this road that’s beside you
G#                                 G
I’ll give her everything more than I am

Eb                                      Cm
And when there’s nothing left burning inside you,
Eb                                      G
Your bones will riddle the ground with the rest.
Cm   Bb         Cm
And welcome the next…


Melody:

For all your light, You were not delivered. Landing hard, Amidst the bones and myself.
|-----------------------------------------------------------------------------------|
|-----------------------------------------------------------------------------------|
|-0-5-7-8----10-8-10-12--8-5-7---0-5-7-8-----8-7-5-7-5-3-5-5------------------------|
|-----------------------------------------------------------------------------------|
|-----------------------------------------------------------------------------------|
|-----------------------------------------------------------------------------------|

In I you trusted, All your worries and wonders. But you will find no comfort here.
|-----------------------------------------------------------------------------------|
|-----------------------------------------------------------------------------------|
|-0-5-7-8-8---10-8-10-12--8-5-7---0-5-7-8-----7-8-7-5-5-----------------------------|
|-----------------------------------------------------------------------------------|
|-----------------------------------------------------------------------------------|
|-----------------------------------------------------------------------------------|

        I built this road and this journey before you.
|--------------------------------------------------------------------------|
|-8-9---9-9-9-9-8-6-4-6-8-8-1----------------------------------------------|
|--------------------------------------------------------------------------|
|--------------------------------------------------------------------------|
|--------------------------------------------------------------------------|
|--------------------------------------------------------------------------|

These bones were men who all fell at my feet.
|--------------------------------------------------------------------------|
|--9-9-9-9-8-6-4-6-8-8-----------------------------------------------------|
|--------------------------------------------------------------------------|
|--------------------------------------------------------------------------|
|--------------------------------------------------------------------------|
|--------------------------------------------------------------------------|

            
            
Suggest correction
Creating personal tab
Creating personal tab
You can edit any tab online and save it as your Personal.

You can edit, replace or remove any tab part or add personal notes – all changes will be seen only by you.

Personal tabs can be accessed anytime from any device, even offline.
Learn more »
Give kudos to tab author, rate the tab!
1 2 3 4 5
comments
print report bad tab
guest
You may want to rate the tab now too:
select rating
Wanna post a correction for this tab? Suggest correction