Oops, an error
Loading. Please wait.

Hyperdrive Tab

version 3
version 3

Whole song

Interactive

3,099 views 1 this week
1 commentread comment
1 2 3 4 5
worth learning
x 3
add to favorites
launch autoscroll
font size
0
reset
how to read this tab
guitar tuner
Tab Pro tools
  • play this tab
  • loop segment
  • change instrument
  • show fretboard
  • metronome
×
Best way to learn
"Hyperdrive"
Autoscroll
slow
fast
+/-
esc
set tempo
stop
Contributor
Difficulty
Tabbers playing skills
novice
intermediate +
Yes, I know he plays in C Major, but I have no clue what gauge strings to get for a 
in that tuning so I figured it out in C Standard.
Btw, the low G isn't necessary for this song so I left it out.

Listen to song for rhythm.
Chorus/Intro chords in C Standard.
|------------|----------0-|0-0-0-0-0-0-|0-0-0-0-0---|
|5-5-5-5-5-3-|3-3-3-3-3-3-|3-3-3-3-3-2-|2-2-2-2-2-5-|
|5-5-5-5-5-4-|4-4-4-4-4-2-|2-2-2-2-2-2-|2-2-2-2-2-5-|
|5-5-5-5-5-5-|5-5-5-5-5-0-|0-0-0-0-0---|----------5-|
|3-3-3-3-3-2-|2-2-2-2-2---|----------4-|4-4-4-4-4-3-|
|------------|------------|------------|------------|
Second chord might have a C at the top.
|------------|------------|----------- -----|------- ------  ---|
|5-5-5-5-5-3-|3-3-3-3-3-3-|----------- -----|------- ------  ---|
|5-5-5-5-5-4-|4-4-4-4-4-4-|----------- -----|------- ------  ---|
|5-5-5-5-5-5-|5-5-5-5-5-5-|----------- -----|9*----- ------  ---|
|3-3-3-3-3-2-|2-2-2-2-2-2-|----9*----10*----|------10*----10*p9-|
|------------|------------|0-0---0-0-- -0-0-|--0-0-- -0-0--  ---|
(repeat last two measures during intro)

Verse (this is why I recommend at least Drop C)
|----------- ------|------- ------  ---|
|----------- ------|------- ------  ---|
|----------- ------|------- ------  ---|
|----------- ------|9*----- ------  ---|
|----9*----10*-----|------10*----10*p9-|
|5-5---5-5-- --5-5-|--5-5-- -5-5--  ---|

|----------- ------|------- ------  ---|
|----------- ------|------- ------  ---|
|----------- ------|------- ------  ---|
|----------- ------|9*----- ------  ---|
|----9*----10*-----|------10*----10*p9-|
|3-3---3-3-- --3-3-|--3-3-- -3-3--  ---|

|----------- ------|------- ------  ---|
|----------- ------|------- ------  ---|
|----------- ------|------- ------  ---| (Two
|----------- ------|9*----- ------  ---| Times)
|----9*----10*-----|------10*----10*p9-|
|0-0---0-0-- --0-0-|--0-0-- -0-0--  ---|

Then the part after the first chorus is just straight-forward palm-muted 8th notes on 
5th fret on the low C string, along w/ a few fifth chords thrown in the rhythm. Hardly 
notating out. After that:
|--------- -------|--------- -- -- -- -|
|--------- -------|--------- -- -- -- -|
|----11--12-----11|--12----12-12-12-12-|
|--------- -------|--------- -- -- -- -|
|----9---10-----9-|--10----10-10-10-10-|
|0-0---0-- -0-0---|0---0-0-- -- -- -- -|
The open notes might be fifths in drop tuning. Octaves might have a few slide-ins just 
feel.

Kinda just did this from memory. It's a simple song and I hope this proves useful.

* = pinch harmonic. All pinch harmonics are two octaves higher than regular pitch.
p = pull-off
comments
We did not receive enough feedback on this tab! Please rate:
print report bad tab
1 2 3 4 5
1 comment total.
0 reply
MyFuriousNipple wrote on July 14 2007, 12:37 am

Ah, I forgot one part before the third verse.
|----- ---------- -|----------------|
|----- ---------- -|----------------|
|----11---9-----11-|--9-----9-9-9-9-|
|----- ---------- -|----------------|
|----9 ---7-----9 -|--7-----7-7-7-7-|
|5-5-- -5---5-5-- -|5---5-5---------|
Or open F string instead of 5th fret.
I'm also pretty sure there's a constant C at the top of the chord in the chorus, so (in C Major tuning) he's most likely strumming power chords on the lower strings and hitting the C (standard B) string open.

I want to post or [tab]
guest
You may want to rate the tab now too:
select rating
Please do not post tabs as comments. Select "correction" instead!