Oops, an error
Loading. Please wait.

Ih-Ah Chords

version 1
version 1

Whole song

Interactive

30,948 views 84 this week
9 commentsread comments
1 2 3 4 5
x 14
add to favorites
launch autoscroll
font size
0
reset
transpose
0
reset
simplify chords
display chords
guitar tuner
Autoscroll
slow
fast
+/-
esc
set tempo
stop
Help us to improve Ultimate-Guitar.com Take our survey!
×
Author
Difficulty
Tuning
novice
E A D G B E
-----------------------------------------------------------------
Ih-Ah! - Devin Townsend
-----------------------------------------------------------------
Tabbed by: DgorillazguyH
Email: alomstashuvit@yahoo.com
Tuning: EADGBE

[Intro]
e|-----0-------0---|----0-------0---|----0-------0---|----------------|
B|---1---1---1---1-|--1---1---1---1-|----------------|----3-------3---|
G|-2-------2-------|----------------|--0---0---0---0-|--5---5---5---5-|
D|-----------------|3-------3-------|2-------2-------|5-------5-------| x2
A|-----------------|----------------|----------------|----------------|
E|-----------------|----------------|----------------|----------------|

[First verse]
(PM)
Am     F           C       G
    As everything in life, comes together now
Am    F          C   G
    I need your mind
Am      F           C        G      G#
    And everything is light, I remember now
Am    F        C    G
    I see you rise
Am      F             C        G
    And all the lonely things, seem to want to change
Am       F              C   G
    I'll sleep on it tonight, oh

Am     F      C      G  G#
Ih-ah! Ih-ah! Ih-ah! Ih-ah!
Am     F      C      G  G#
Ih-ah! Ih-ah! Ih-ah! Ih-ah!

[Chorus]
Am            F          C  
    We don't even understand
G
Something's going on
Am           F          C
    We don't even understand
   G          G#     Am
So how could this be wrong, ah!

F      C      G  G#
Ih-ah! Ih-ah! Ih-ah!
Am     F      C      G   G#
Ih-ah! Ih-ah! Ih-ah! Ih-ah!

[Second verse]
F                        Am
    I'm so in love with you
Asus2 Asus4 Asus2
...how could I?
F             Am
    Ever be untrue.
Asus2 Asus4 Asus2
  Am I with you?
F                     D7
    With everything I do
God I love you
I love you...

e|-----0-------0---|----0-------0---|----0-------0---|----------------|
B|---1---1---1---1-|--1---1---1---1-|----------------|----3-------3---|
G|-2-------2-------|----------------|--0---0---0---0-|--5---5---5---5-|
D|-----------------|3-------3-------|2-------2-------|5-------5-------| x2
A|-----------------|----------------|----------------|----------------|
E|-----------------|----------------|----------------|----------------|

[Chorus]
Am           F          C
    We don't even understand
G
Something's going on
Am           F          C
    We don't even understand
   G         G#    Am
So how could we be wrong, ah!

F      C      G  G#
Ih-ah! Ih-ah! Ih-ah!
Am     F      C      G  G#
Ih-ah! Ih-ah! Ih-ah! Ih-ah!

Am  F                C
    We don't know or care
G                 Am
Somethings always there
       F                   C
    We see it's in own our hands,
       G          G#
But we just don't understand

[Outro]
e|-----0-------0---|----0-------0---|----0-------0---|----------------|
B|---1---1---1---1-|--1---1---1---1-|----------------|----3-------3---|
G|-2-------2-------|----------------|--0---0---0---0-|--5---5---5---5-|
D|-----------------|3-------3-------|2-------2-------|5-------5-------| x2
A|-----------------|----------------|----------------|----------------|
E|-----------------|----------------|----------------|----------------|

END

 

Suggest correction
comments
print report bad tab
9 comments total. Showing first comments.
+1 reply
Eryth 174 Aug 23, 2010 12:01 PM

Not the original tuning, but great transcription!

+1 reply
Maizzi 71 Jun 29, 2011 04:09 AM

Hey, you should tab Feather from Ghost also. In standard tuning. Very nice tab btw.

0 reply
DgorillazguyH 341 Jul 01, 2011 11:57 PM

Maizzi, i except your challenge :D

guest
You may want to rate the tab now too:
select rating
Wanna post a correction for this tab? Suggest correction